Oops, an error
Loading. Please wait.

Fireflies Bass Tab

version 2
version 2

Whole song

Interactive

25,816 views 39 this week
2 commentsread comments
1 2 3 4 5
x 17
add to favorites
launch autoscroll
font size
0
reset
guitar tuner
×
Best way to learn
"Fireflies"
Autoscroll
slow
fast
+/-
esc
set tempo
stop
Author
Difficulty
********************
Own City : Fireflies
********************

Note : x = mute chord
       H = Hammer On

Intro :
 |: 8x           :|
G|----------------|
D|----------------|
A|----------------|
E|----------------|

Verse :
G|----------------|----------------|-------------8x-|----------------|
D|----------------|----------------|---8x-----------|----------------|
A|----------6-x---|----------------|----------6x----|---------6------|
E|6x-6x-----------|4x-4x-4x--4x---5|6x--------------|4x-4x--4x-4x--8x|

                                                                    H
G|----------------|----------------|----------------|----------------|
D|----------------|----------------|-------------8x-|--------------68|
A|----------6-x---|----------------|----------6x----|----------------|
E|6x-6x-----------|4x-4x-4x--4x---8|6x-6x-----------|4x---------4x---|

Chorus : (either bass is very soft, or it is piano)
 |----------------|----------------|----------------|----------------|
D|----------------|----------------|----------------|----------------|
A|11------10------|13--------------|11--------------|10------11------|
E|----------------|----------------|--------11------|----------------|

G|----------------|----------------|----------------|----------------|
D|--------13------|----------------|----------------|----------------|
A|11--------------|11--13--15------|11--------------|8-----------10--|
E|----------------|----------------|--------11------|----------------|

Verse 2 :
G|----------------|----------------|----------------|----------------|
D|----------------|----------------|----------------|----------------|
A|----------6-x---|----------------|----------6x-6x-|---------6------|
E|6x-6x-----------|4x-4x-4x--4x---5|6x-6x-----------|4x-4x--4x-4x--8x|

G|----------------|----------------|----------------|----------------|
D|----------------|---6x-----------|----------8x----|----------------|
A|----------6-x---|----------------|-------------6x-|----------------|
E|6x-6x-----------|4x----4x--4x---5|6x-6x-----------|4x-4x--4x44x----|

Chorus 2 :
G|----------------|----------------|----------------|----------------|
D|----------------|----------------|----------------|----------------|
A|----------------|----------------|--------6-------|----------------|
E|4-------8-------|6---------------|4---------------|3-------4-------|

G|----------------|----------------|----------------|----------------|
D|----------------|----------------|----------------|----------------|
A|--------6-------|----------------|--------6-------|----------------|
E|4---------------|4---6---8-------|4---------------|6-----------8---|

Bridge :
G|----------------|
D|----------------|
A|----------------|
E|x---------------|

Verse
Verse 2

Chorus 3 :
G|----------------|----------------|----------------|----------------|
D|----------------|----------------|----------------|----------------|
A|----------------|----------------|--------6-------|----------------|
E|4-------8-------|6---------------|4---------------|3-------4-------|

G|----------------|----------------|----------------|----------------|
D|----------------|----------------|----------------|----------------|
A|--------6-------|----------------|--------6-------|8---------------|
E|4---------------|4---6---8-------|4---------------|------------3---|

Chorus 2

Outro : (either bass is very soft, or it is piano)
G|----------------|----------------|----------------|----------------|
D|----------------|----------------|----------------|----------------|
A|11------15------|13--------------|11--------------|10------11------|
E|----------------|----------------|--------11------|--------------11|

G|----------------|----------------|----------------|----------------|
D|--------13------|----------------|----------------|----------------|
A|11--------------|11--13--15------|11--------------|13--------------|
E|----------------|----------------|--------11------|----------------|

Written by Etienne
Visit http://basse.over-blog.com for my other bass tabs
Suggest correction
comments
print report bad tab
2 comments total.
0 reply
Skerlnik 136 Feb 01, 2010 09:40 AM

Nice tab mate!

0 reply
junobass 42 Jan 12, 2017 02:51 PM

Lol! Owl City, not Own City :D

guest
You may want to rate the tab now too:
select rating
Wanna post a correction for this tab? Suggest correction