Oops, an error
Loading. Please wait.
We have Chord Pro version of Fireflies.
It's the closest thing you can get to the original song and it has interactive parts. Check out the tab »
×
2,891 views 1 this week
no commentswrite comment
1 2 3 4 5
x 3
add to favorites
launch autoscroll
font size
0
reset
guitar tuner
backing track
0:00
0:00
Autoscroll
slow
fast
+/-
esc
set tempo
stop
Author
Difficulty
novice
Fireflies by Owl City
Album: Ocean Eyes
Tuning: Standard (EADG)



[Intro]
G|--------------0------------5-3-1-|
D|-5-3-0--5-3-0-----3-5-7--55------|
A|----------------5----------------|
E|---------------------------------|


[Verse]
G|-----------------------------|
D|-----------------------------| x3
A|---66-66-6-------------------|
E|-66--------44-44--44-4444----|

G|----------------|
D|----------------|
A|---66-66-6------|
E|-66--------4~~--|


[Main Riff]
G|----------------------|
D|----------------------|
A|-----3~--------6~-----|
E|--4~----6~--4~---3~4~-|

G|------------------------|
D|------------------------|
A|-----6~-----3~---6~8~---|
E|--4~----4~6~---4~-------|


[Verse]
G|-----------------------------|
D|-----------------------------| x4
A|---66-66-6-------------------|
E|-66--------44-44--44-4444----|


[Chorus]
G|-------------------------------------------|
D|-------------------------------------------|
A|--------3-33----------------6-66-----------|
E|--4-44------6-6-6-666-4-44-------3-33-4-44-|

G|---------------------------------------|
D|---------------------------------------|
A|------6-66--------3-333-------6-666-8~-|
E|-4-44---------4-6-------4-444----------|


[Verse]
G|-----------------------------|
D|-----------------------------| x3
A|---66-66-6-------------------|
E|-66--------44-44--44-4444----|

G|----------------|
D|----------------|
A|---66-66-6------|
E|-66--------4~~--|

G|-----------------------------|
D|-----------------------------| x4
A|---66-66-6-------------------|
E|-66--------44-44--44-4444----|


[Chorus]
G|-------------------------------------------|
D|-------------------------------------------|
A|--------3-33----------------6-66-----------|
E|--4-44------6-6-6-666-4-44-------3-33-4-44-|

G|--------------------------------------|
D|--------------------------------------|
A|------6-66--------3-333-------6-666-8-|
E|-4-44---------4-6-------4-444---------| 


[Chorus]
G|-------------------------------------------|
D|-------------------------------------------|
A|--------3-33----------------6-66-----------|
E|--4-44------6-6-6-666-4-44-------3-33-4-44-|

G|--------------------------------------|
D|--------------------------------------|
A|------6-66--------3-333-------6-666-8-|
E|-4-44---------4-6-------4-444---------|


[Main Riff]
G|----------------------|
D|----------------------|
A|-----3~--------6~-----|
E|--4~----6~--4~---3~4~-|

G|------------------------|
D|------------------------|
A|-----6~-----3~---6~8~---|
E|--4~----4~6~---4~-------|



Tabbed by Brad and Andrew (17 Seconds)
Corrections/Comments appreciated!
Suggest correction
Give kudos to tab author, rate the tab!
1 2 3 4 5
comments
print report bad tab
guest
You may want to rate the tab now too:
select rating
Wanna post a correction for this tab? Suggest correction