Oops, an error
Loading. Please wait.
We have an official Fireflies tab made by UG professional guitarists. Check out the tab »
×

Fireflies ukulele

version 3
version 3

Whole song

  • Tabbed out the Intro--both the sparkly bit at the ... Show more

Interactive

70 views 6 this week
1 commentread comment
1 2 3 4 5
x 3
add to favorites
×
Save as Personal and add changes to this tab that will be seen only by you. Learn more ›
×
You can save this tab as Personal to edit and correct it or add notes. All changes will be seen only by you. Learn more »
launch autoscroll
font size
0
reset
transpose
0
reset
display chords
guitar tuner
backing track
0:00
0:00
edit
Autoscroll
slow
fast
+/-
esc
set tempo
stop
About this tab version
Tabbed out the Intro--both the sparkly bit at the beginning and the riff after the first 4 bars. I suggest capo-ing the third fret, and since this site doesn't transpose tabs, I gave the tab for both no capo and 3rd fret capo. Was this info helpful? Yes No
Strumming Is this strumming pattern correct? Yes No
Intro 91 bpm
1
2
3
4
5
6
7
8
Listen
By: Eric S

Play with a low G string.

[Intro Short Notes]
  Bb               Eb               Ab
A|----5-----------|----------------|----------------|----------------|
E|6-6-------6-----|----------6-----|----------------|----------------|
C|--------------3-|--3-5-3-5-----3-|----------3-----|------------3-5-|
G|----------------|----------------|--3-5-3-5-------|--3-5-3---3-----|

A|----5-----------|----------------|----------------|----------------|
E|--6-------6-----|--------4-3-----|----------------|----------------|
C|--------------3-|--3-5-3-----3---|----------------|----------3-5---|
G|----------------|--------------3-|----5-----3-----|5---5-3---------|

[Intro Riff]
  (F)
A|----------------|
E|----------------|
C|----------------|
G|------------8---|

  G                C                F
A|----------------|----------------|----------------|----------------|
E|----------------|----------------|----------------|----------------|
C|----------------|----------------|----------------|------3-----5---|
G|7-----3-----8---|7-----3-----5---|------------3---|5---------------|

  G                C                F
A|----------------|----------------|----------------|----------------|
E|----------------|----------------|----------------|----------------|
C|----------------|7-----5-----3---|----------------|----------------|
G|----------3-3---|----------------|----------------|----------------|

(If you're going to capo the third fret)

[Intro Short Notes]
  G                C                F
A|----2-----------|----------------|----------------|----------------|
E|3-3-------3-----|----------3-----|----------------|----------------|
C|--------------0-|--0-2-0-2-----0-|----------0-----|------------0-2-|
G|----------------|----------------|--0-2-0-2-------|--0-2-0---0-----|

  G                C                F
A|----2-----------|----------------|----------------|----------------|
E|--3-------3-----|--------1-0-----|----------------|----------------|
C|--------------0-|--0-2-0-----0---|----------------|----------0-2---|
G|----------------|--------------0-|----2-----0-----|2---2-0---------|

[Intro Riff]
  (F)
A|----------------|
E|----------------|
C|----------------|
G|------------5---|

  G                C                F
A|----------------|----------------|----------------|----------------|
E|----------------|----------------|----------------|----------------|
C|----------------|----------------|----------------|------0-----2---|
G|4-----0-----5---|4-----0-----2---|------------0---|2---------------|

  G                C                F
A|----------------|----------------|----------------|----------------|
E|----------------|----------------|----------------|----------------|
C|----------------|4-----2-----0---|----------------|----------------|
G|----------0-0---|----------------|----------------|----------------|

            
            
Suggest correction
Creating personal tab
Creating personal tab
You can edit any tab online and save it as your Personal.

You can edit, replace or remove any tab part or add personal notes – all changes will be seen only by you.

Personal tabs can be accessed anytime from any device, even offline.
Learn more »
Give kudos to tab author, rate the tab!
1 2 3 4 5
comments
print report bad tab
1 comment total.
0 reply
lilycalsyn 20 Sep 03, 2017 10:49 PM

So helpful!! thx

guest
Wanna post a correction for this tab? Suggest correction