Oops, an error
Loading. Please wait.

Fireflies Tab

version 6
version 6
31,538 views 270 this week
no commentswrite comment
1 2 3 4 5
excellent!
x 4
add to favorites
launch autoscroll
font size
0
reset
how to read this tab
guitar tuner
Tab Pro tools
  • play this tab
  • loop segment
  • change instrument
  • show fretboard
  • metronome
Autoscroll
slow
fast
+/-
esc
set tempo
stop
Contributor
Difficulty
intermediate
h = hammer on
p = pull off
\ = slide down
/ = slide up

NOTE: The chords are slightly different in every refrain (see below)


count |  1  e  &  a  2  e  &  a  3  e  &  a  4  e  &  a|
  e   |-------10--------------------------------6------|
  b   |----------------11------------------------------|
  G   |-----------------------8-------10-\8/10--------8|
  D   |----h8-------h8--------------8------------------|
  A   |--------------------------6-----------------6---|
  E   |--6--------6--------6---------------------------|

count |  1  e  &  a  2  e  &  a  3  e  &  a  4  e  &  a|
  e   |------------------------------------------------|
  b   |-----------------4--------------------------4-h6|
  G   |--------5-\3-h5-----------------5-p3-----3------|
  D   |-----6-----------------------6------------------|
  A   |--------------------6-----------------3---------|
  E   |--4--------------------4------------------------|

count |  1  e  &  a  2  e  &  a  3  e  &  a  4  e  &  a|
  e   |-------10---------------------------------------|
  b   |----------------11--------------------9--8------|
  G   |-----------------------8-------10-\8--------8---|
  D   |----h8-------h8--------------8-----------------8|
  A   |--------------------------6---------------------|
  E   |--6--------6--------6---------------------------|

count |  1  e  &  a  2  e  &  a  3  e  &  a  4  e  &  a|
  e   |------------------------------------------------|
  b   |-----------------------------------------4--6---|
  G   |-------5---------3--------5-----5--3------------|
  D   |------------------------------------------------|
  A   |--------6--------------6--------------3---------|
  E   |--4--------4-----------------4------------------|


The Chords I Play In The First Refrain

It starts with a little pickup at the end of the last intro pattern:

count |  1  e  &  a  2  e  &  a  3  e  &  a  4  e  &  a|
  e   |-----------------------------------3------------|
  b   |-----------------------------------4--------6---|
  G   |-----------------------------------5--------3---|
  D   |-----------------------------------6------------|
  A   |------------------------------------------------|
  E   |--------------------------------4-----------6---|

| Ab Eb/G | Bb     |
| Ab Eb/G | Gm7 Ab |
| Ab Eb   | Abadd9 Bb Cm7 |
| Ab Eb/G | F      |



The Chords I Play In The Second Refrain

| Ab Cm7  | Bb     |
| Ab Eb   | Gm7 Ab |
| Ab Eb   | Abadd9 Bb Cm7 |
| Ab Eb   | Bb     |
| Abadd9  |


The Chords Of The Last 3 Refrains

| Ab Cm7  | Bb     |
| Ab Eb   | Gm7 Ab |
| Ab Eb   | Abadd9 Bb Cm7 |
| Ab Eb   | F      |

Repeat this part x2
| Ab Cm7  | Bb     |
| Ab Eb   | Gm7 Ab |
| Ab Eb   | Abadd9 Bb Cm7 |
| Ab Eb   | Bb   |

Please contact me at my email address, which you can most likely find on my profile, if 
Í have made any mistakes, and I will see that I coreect them

Enjoy :DDD
comments
print report bad tab
I want to post or [tab]
guest
You may want to rate the tab now too:
select rating
Please do not post tabs as comments. Select "correction" instead!