Oops, an error
Loading. Please wait.
We have Chord Pro version of Fireflies.
It's the closest thing you can get to the original song and it has interactive parts. Check out the tab »
×

Fireflies tab

version 8
version 8

Whole song

Interactive

Video

295 views 3 this week
3 commentsread comments
1 2 3 4 5
3 more votes to show rating
add to favorites
×
Save as Personal and add changes to this tab that will be seen only by you. Learn more ›
×
You can save this tab as Personal to edit and correct it or add notes. All changes will be seen only by you. Learn more »
launch autoscroll
font size
0
reset
how to read this tab
guitar tuner
backing track
0:00
0:00
edit
Autoscroll
slow
fast
+/-
esc
set tempo
stop
About this tab version
Only tabs I could find for this song were either impossibly hard (Sungha Jung) or too easy. I found a Youtube video and spent hours matching his fingers to the guitar to make this tab. Enjoy. Was this info helpful? Yes No
Fireflies by Owl City
Capo 3
Key of D# in Standard Tuning

[Verse 1]
e|-----------------------------------------0-------0---------------------------|
B|------3-3---3--1-----------------1-3-------3-1-----3-1---------------- 1-----|
G|----0-----0------0-----0h2-2-0h2-----0-0-------0--------2----0-2-2-0h2-------|
D|-------------------0-3----------------------------------3---3-3--------------|
A|------------3----------------------------------3-----------------------------|
E|--3------------------------------------3-------------------------------------|

e|-----------------------------------------0-------0--------------3p--------------|
B|-----3-3---3--1-----------------1-3-------3-1------3-1--------------------------|
G|---0-----0------0-----0h2-2-0h2-----0-0--------0--------2—-0h2------------------|
D|------------------0-3-----------------------------------3-------3---------------|
A|-----------3-----------------------------------3--------------------------------|
E|--3-----------------------------------3-----------------------------------------|
 
[Chorus]
e|----------3p0------------------------------------------0----------------0----|
B|------1--------3-1-3---1p0-0-0h1-0-------0---------1h3---3p1---1----1-3------|
G|----2---2------------0-------------2--0--0--2--0-2-----------0---2---------2-|
D|--3--------------------------------3-------------3---------------3-----------|
A|----------3---------------------------3-----0------------3-----------------0-|
E|-------------------3---------------------0----------------------------3------|

e|-----------0----------------0------------------------------------------------|
B|-------1h3---3p1---1-3---3---3-----------------------------------------------|
G|--0--2-----------0------0-0---2----------------------------------------------|
D|-----3-----------------0---0-------------------------------------------------|
A|-------------3---------------------------------------------------------------|
E|---------------------3-------------------------------------------------------|

[Bridge]
e|--------------0---------------0-----------------0----------------------------|
B|---3-3---3p1-1-------------1h3------3-3--3p1--3---1---------1----------------|
G|-------0--------2--0-0h2-2---------0---0------------0--2-2-2-----------------|
D|----------------3---3-----3-----------------------3---3---3------------------|
A|---------3-------------------------------3-----------------------------------|
E|--3-------------------------------3------------------------------------------|

e|---------------------------------------------0-----3----------------------------|
B|----3-3--3p1-3--------------1-----3—3---3p1-3-1---------------------------------|
G|---0---0-------0-2-0—0h2-2-2-2---0----0---------2-------------------------------|
D|-----------------3--3-----3-------------------3---3-----------------------------|
A|---------3------------------------------3---------------------------------------|
E|--3-----------------------------3-----------------------------------------------|
 
[Final Chorus]
(alt transition):
e|-----0--------0--3p0---------------------------------------------------------|
B-----3-3---1----------3-1-3---1p0-0h1-0-----1-----0-0---0---------------------|
G|---0---0-0---2-2-----------0-----------2--2-2---0--0--0--2--0-2--------------|
D|--0-----0---3--------------------------3-3-----2-----2-----2--3--------------|
A|-----------------3----------------------------3----------0-------------------|
E|-------------------------3-------------------------0-------------------------|

e|-----0------------0-----------0-----------0----------------------------------|
B|--1h3-3p1--1--1-3---------1h3---3p1--1-3----3-1------------------------------|
G|----------0--2-------2-0-2----------0----0-------2---------------------------|
D|-------------3-----------3-----------------------3---------------------------|
A|------3--------------0----------3--------------------------------------------|
E|------------------3--------------------3-------------------------------------|



************************************

| h  Hammer-on
| p  Pull-off
 
************************************
Suggest correction
Creating personal tab
Creating personal tab
You can edit any tab online and save it as your Personal.

You can edit, replace or remove any tab part or add personal notes – all changes will be seen only by you.

Personal tabs can be accessed anytime from any device, even offline.
Learn more »
Give kudos to tab author, rate the tab!
1 2 3 4 5
comments
print report bad tab
3 comments total.
+1 reply
mrbasketball_1 31 Apr 21, 2017 02:56 AM

Here's the original video I had found: https://www.youtube.com/watch?v=q-AUQXXvzEY&index=3&list=FLf2Xl5G4oNlhM3owuHsnQWg

guest
You may want to rate the tab now too:
select rating
Wanna post a correction for this tab? Suggest correction