Oops, an error
Loading. Please wait.

Fuzzy Blue Lights Tab

version 1
version 1

Whole song

Interactive

11,605 views 1 this week
1 commentread comment
1 2 3 4 5
worth learning
x 7
add to favorites
launch autoscroll
font size
0
reset
how to read this tab
guitar tuner
Autoscroll
slow
fast
+/-
esc
set tempo
stop
Help us to improve Ultimate-Guitar.com Take our survey!
×
Author
Difficulty
novice
-------------------------------------------------------------------------------
                             Fuzzy Blue Lights - Owl City
-------------------------------------------------------------------------------
Tabbed by: Nick!
Email: nickdeathxcore@yahoo.com

Tuning: standard

e|-----------6---------------------------6-----------------------------------|
B|---7----7----7---7---7----7----7----7--------------------------------------|
G|-6---6---------6---6---6-----6---6-----------------------------------------|
D|---------------------------------------------------------------------------|
A|---------------------------------------------------------------------------|
E|---------------------------------------------------------------------------|



That's the entire song, not hard at all.
I think I messed up the count at the end, but you can figure it out on your own.
===============================================================================
Suggest correction
comments
print report bad tab
1 comment total.
+2 reply
TGFMusic 10 wrote on January 14 2009, 02:29 pm

That's not the whole song at all...in fact that's not even the right intro...it's like this:

e|---------6---------------6-------------|
B|---7---7---7---7---7---7---7---7-------|
G|-6---6-------6---4---4-------4---------|
D|---------------------------------------|
A|---------------------------------------|
E|---------------------------------------|

Not the correct timing and stuff but you get the point...

guest
You may want to rate the tab now too:
select rating
Please do not post tabs as comments. Select "correction" instead!