Oops, an error
Loading. Please wait.

Fuzzy Blue Lights Tab

version 3
version 3

Whole song

Interactive

1,554 views 1 this week
no commentswrite comment
1 2 3 4 5
please rate
add to favorites
launch autoscroll
font size
0
reset
how to read this tab
guitar tuner
Autoscroll
slow
fast
+/-
esc
set tempo
stop
Help us to improve Ultimate-Guitar.com Take our survey!
×
Contributor
Difficulty
Capo
pao118 56
intermediate
1st fret
First of all this is not entirely mine the chords were tabbed by Thomas and the 
intro I got from Daniel Chevalier but the last part I did myself. Take it easy on 
me this is my FIRST tab so if i made any mistakes fix it.^^



Fuzzy Blue Lights by Owl City
Capo 1
Intro

e|--------5-------5--------------------------------------------------|
B|-----6-6-6-6-6-6-6-6-----------------------------------------------|
G|----5-5---5-3-3---3------------------------------------------------|
D|-------------------------------------------------------------------| 4x
A|-------------------------------------------------------------------|
E|-------------------------------------------------------------------|

F                 C
If I could look across the country
Dm                   Bb
From California to New Jersey
F                       C
Then I would count the parks and lake resorts
Dm                   Bb
And number all the jets and airports
C                  Dm                Bb    F     C
All those rather dreary rain clouds still bother me
                           Dm             Bb         F
Cause I look through the camera eyepiece and cannot see


F               C
If I could open up my window
Dm                  Bb
And see from Tampa Bay to Juneau
F                   C               Dm
Then I would survey all those open miles
                    Bb
And line them up in single file
C             Dm              Bb  F    C
Everywhere I look I see green scenic sublime
                 Dm          Bb       F
And all those oceanic vistas are so divine

e|--------5-------5---------------------------------------------------|
B|-----6-6-6-6-6-6-6-6------------------------------------------------|
G|----5-5---5-3-3---3-------------------------------------------------|
D|--------------------------------------------------------------------| 4x
A|--------------------------------------------------------------------|
E|--------------------------------------------------------------------|


Bb                F     C    Bb
If I was standing on the balcony
                      Dm   C
And you were walking down below
Bb                F       C          Bb
I'd feel rather depressed and out of place
                    Dm       C
And lonely just to watch you go
Bb                              F     C    Bb
If you were swinging from the highway overpass
                   Dm    C
Within the western hemisphere
Bb                 F        C    Bb
I'd feel rather afraid and insincere
                Dm    C
If you began to disappear


e|------------------------------------------------------------------------|
B|-8-8-10-8-6-8-8-6-8-8-10-8-6-8-8-10-8-8-10-8-6-8-8-6-8-8-10-8-6-8-8-6---|
G|-------------7----------------7-----------------7---7------------7------|
D|------------------------------------------------------------------------|
A|------------------------------------------------------------------------|
E|------------------------------------------------------------------------|


e|------------------------------------------------------------------------|
B|----8-8-8-6-10-6-6-11-10-6-8-8-8-8-6-10-6-6-10-11-10-6------------------|
G|----------------7------------------------7------------------------------|
D|------------------------------------------------------------------------|
A|------------------------------------------------------------------------|
E|------------------------------------------------------------------------|


e|--------5-------5--------------------------------------------------|
B|-----6-6-6-6-6-6-6-6-----------------------------------------------|
G|----5-5---5-3-3---3------------------------------------------------|
D|-------------------------------------------------------------------| 8x
A|-------------------------------------------------------------------|
E|-------------------------------------------------------------------|





Bb 		F	  C	 Bb			 
If I was walking through a sad art gallery
		    Dm	        C	
And you were driving through the night
Bb		 F	 C	Bb
I'd feel rather alone and I'll at ease
	              Dm	      C
Beneath the brilliant showroom light
Bb		    F        C        Bb
If I was flying on a plane above your town
		   Dm     C
And you were gazing at the sky
Bb                  F       C      Bb
Somehow I'd feel intact and reassured
                Dm    C
If you began to wave goodbye

e|-----------------------------------------------------------------|
B|-6-8-6-10-6-8-6-6-8-6-10-6-8-6-8-6-10-6-8-6-6-8-6-10-14-10-8-----|Until
G|------7--------7-----7------------7--------7---------------------| End
D|-----------------------------------------------------------------|
A|-----------------------------------------------------------------|
E|-----------------------------------------------------------------|
comments
We did not receive enough feedback on this tab! Please rate:
print report bad tab
1 2 3 4 5
I want to post or [tab]
guest
You may want to rate the tab now too:
select rating
Please do not post tabs as comments. Select "correction" instead!