Oops, an error
Loading. Please wait.

Good Time Bass Tab

11,059 views 15 this week
no commentswrite comment
1 2 3 4 5
worth learning
x 6
add to favorites
launch autoscroll
font size
0
reset
guitar tuner
Tab Pro tools
  • play this tab
  • loop segment
  • change instrument
  • show fretboard
  • metronome
Autoscroll
slow
fast
+/-
esc
set tempo
stop
"Good Time"
Owl City ft. Carly Rae Jepsen
from the album 'The Midsummer Station' (2012)
bass tabs by artrush@gmail.com

bass comes in at 0:15
G-------------|
D-----10h13---|
A-------------|
E--11---------|
play after each line

until after
"it's always a good time"
come in with
G-----------------------------------|
D-----------------------------------|
A--6h8-10--11-11--6--6-6------------|
E------------------------5h6-6--8---|(rpt x3)

G------------------------------------|
D----------------------------------8-|
A--6h8-10--11-11--6--6-6---6---0h6---|
E------------------------------------|

bass drops out at
"good morning and good night"
after "i wake up at twilight"
drop back in with
G----------------------------------|
D----------------------------------|
A--6h8-10--11-11--6--6-6-----------|
E------------------------5h6-6--8--|

G---------------------------------|
D------------------------------8--|"woo!"
A--6h8-10--11-11--6-6------6h8----|
E----------------------5h6--------|

"woah-oh-oh, oh-oh, oh-oh-oh!"
G---------------------------------------|
D---------------------------------------|
A---11-11--6--6------------6h8-10-------|
E----------------5h6-6--8---------------|(rpt x3)

G------------------------------------|
D----------------------------8--8--8-|
A--6h8-10--11-11--6------6h8---------|
E--------------------5h6-------------|


after the chorus
G---------------------------------------------|
D---------10h13---13--10---------10----10--13-|
A------------------------13--13-----13--------|
E--11--11-------------------------------------|

G-----------------------------------|
D---------10h13---13--10-----10h13--|
A------------------------13---------|
E--11--11---------------------------|

then all repeats as above

until
"doesn't matter when!"
G---------------------------------------------|
D---------10h13---13--10---------10----10--13-|
A------------------------13--13-----13--------|
E--11--11-------------------------------------|

(x3)

G-------------------------|
D------8-----10-8-----8s1-|
A-11-----6----------6-----|
E-------------------------|

then "woah-oh-oh, oh-oh, oh-oh-oh!"
until end
comments
print report bad tab
I want to post or [tab]
guest
You may want to rate the tab now too:
select rating
Please do not post tabs as comments. Select "correction" instead!