Oops, an error
Loading. Please wait.

Hello Seattle Tab

version 1
version 1

Interactive

16,340 views 1 this week
1 commentread comment
1 2 3 4 5
accurate
x 10
add to favorites
launch autoscroll
font size
0
reset
how to read this tab
guitar tuner
Tab Pro tools
  • play this tab
  • loop segment
  • change instrument
  • show fretboard
  • metronome
×
Best way to learn
"Hello Seattle"
Autoscroll
slow
fast
+/-
esc
set tempo
stop
Difficulty
novice
E------------------------------------------------------|
B------------------------------------------------------|
G------------------------------------------------------|
D-----0-----------0---------------------------0--------|
A---1---3--1----1---3--1------------1--3---1------1----|
E-1----------3-----------1--------3--------------------|

This is what he sings for the majority of the song. The change is

E----------------------------------------------------|
B----------------------------------------------------|
G----------------------------------------------------|
D----------3----5---0--------------------------------|
A-3--1--------------------3--1------3----5-----------|
E-------3-----------------------3--------------3-----|

100% sure. Enjoy =)
comments
print report bad tab
1 comment total.
0 reply
jmiltheman wrote on June 25 2010, 08:42 am

the second part should be:

D--------3---5-0---------------------
A--5-3-1------------5-3-1-3---5------
E-------------------------------3----

I want to post or [tab]
guest
You may want to rate the tab now too:
select rating
Please do not post tabs as comments. Select "correction" instead!