Oops, an error
Loading. Please wait.

Meteor Shower Bass Tab

1,738 views 1 this week
1 commentread comment
1 2 3 4 5
x 4
add to favorites
launch autoscroll
font size
0
reset
guitar tuner
×
Best way to learn
"Meteor Shower"
Autoscroll
slow
fast
+/-
esc
set tempo
stop
Author
Difficulty
  follow
novice
Listen for when the bass comes in

Intro
G--------------------------|
D--3~---0~-----------------|
A----------1~----1~--3~----|
E------------1~------------|

Combine intro and pre-chorus first time

Pre-Chorus
G-------------------------------|
D--3~--0~-------3---------------|
A---------1~-----31--3----------|
E-----------1~------------------|

Chorus
G--------------------------------------------------------------------|
D-----3--------------0~-----5--3-------------0-----------------------|
A-------3~---1---3----------------3----51--3-------------------------|
E--1-----------------------------------------------------------------|

Pre-chorus x2 then back to Chorus


This is my first tab. Let me know what you think
Suggest correction
comments
print report bad tab
1 comment total.
0 reply
Jcbrown29 10 Oct 27, 2014 09:34 AM

Sounds like the song!

guest
You may want to rate the tab now too:
select rating
Wanna post a correction for this tab? Suggest correction