Oops, an error
Loading. Please wait.

Sunburn Tab

version 2
version 2

Whole song

Interactive

4,712 views 9 this week
3 commentsread comments
1 2 3 4 5
please rate
add to favorites
launch autoscroll
font size
0
reset
how to read this tab
guitar tuner
Tab Pro tools
  • play this tab
  • loop segment
  • change instrument
  • show fretboard
  • metronome
×
Best way to learn
"Sunburn"
Autoscroll
slow
fast
+/-
esc
set tempo
stop
Difficulty
novice
-------------------------------------------------------------------------------
                         SUNBURN [Intro] - Owl City
-------------------------------------------------------------------------------


e|-------------------------------3----------------------------x-+------------|
B|---------------8-------------0------------------1-----1-----x-+------------|
G|----------7/9-----9\7-5----------5------------0-----0-------x-+------------|
D|-------------------------7/9--------5-----------------------x-+------------|
A|--------------------------------------------------0---------x-+------------|
E|--------------------------------------------3-----------1---x-+------------|

e|-------------------------------3----------------------------3--------------|
B|---------------8-------------0------------------1-----1-----1--------------|
G|----------7/9-----9\7-5----------5------------0-----0-------2--------------|
D|-------------------------7/9--------5-----------------------3--------------|
A|--------------------------------------------------0------------------------|
E|--------------------------------------------3-----------1------------------|

************************************
| /   slide up
| \   slide down
| +   natural harmonics (haven't figured out which fret this is yet)
| x   mute note
************************************
comments
We did not receive enough feedback on this tab! Please rate:
print report bad tab
1 2 3 4 5
3 comments total.
0 reply
aditwhatever wrote on May 5 2010, 09:47 pm

Just a little correction, I listened to the song again and figured out the first tab isn't as fitting to it.

So, instead of:


e|-------------------------------------------|
B|---------------8-------------0---8---------|
G|----------7/9-----9\7\5--------------------|
D|-------------------------7/9---9------5----|


play

e|-------------------------------3-----------|
B|---------------8-------------0-------------|
G|----------7/9-----9\7\5------------5-------|
D|-------------------------7/9----------5----|


So, what do you think?

0 reply
aditwhatever wrote on May 7 2010, 04:59 am

The tab's been updated, so please ignore the correction!

0 reply
aditwhatever wrote on October 8 2014, 10:27 pm

This tab is beyond terrible. Ignore this tab, guys. Check others.

I want to post or [tab]
guest
You may want to rate the tab now too:
select rating
Please do not post tabs as comments. Select "correction" instead!