Oops, an error
Loading. Please wait.

The Saltwater Room Bass Tab

version 1
version 1

Whole song

Interactive

3,266 views 1 this week
no commentswrite comment
1 2 3 4 5
1 last vote to show rating
add to favorites
launch autoscroll
font size
0
reset
guitar tuner
Autoscroll
slow
fast
+/-
esc
set tempo
stop
Help us to improve Ultimate-Guitar.com Take our survey!
×
Author
|--------------------|
|---Saltwater-Room---|
|--------------------|
|------Owl-City------|
|--------------------|
|-Maybe I'm Dreaming-|
|--------------------|

This is my version of The Saltwater Room and also my first tab posted on UG.



To the drum beat

Verse						 *4
G|----------------------------------------------------|-----|
D|-------------------------------7~-7-----------------|-10~-|
A|-8~-8-8~-8-----------8~-8-8~-8------8~-8-1010-10-10-|-----|
E|-----------8~-8-8~-8--------------------------------|-----|

Chorus
G|---------------------------------|
D|-----------7--7------------------|
A|-10-10--10-------8-8-8-8---------|
E|-------------------------8-8-8-8-|


G|-----------------------------------------| *4
D|-------------7-7-7-7-10-10-10-10---------|
A|-10-10-10-10---------------------8-8-8-8-|
E|-----------------------------------------|

Verse						*2
G|----------------------------------------------------|-----|
D|-------------------------------7~-7-----------------|-10~-|
A|-8~-8-8~-8-----------8~-8-8~-8------8~-8-1010-10-10-|-----|
E|-----------8~-8-8~-8--------------------------------|-----|

Chorus
G|-----------------------------------| Variations of chorus
D|-----------7-7-7-7-----------------|
A|-10-10--10---------8-8-8-8---------|
E|---------------------------8-8-8-8-|

G|-----------------------------------------| 
D|-------------7-7-7-7-10-10-10-10---------|
A|-10-10-10-10---------------------8-8-8-8-|
E|-----------------------------------------|	

---------------------------------------------

G|------------------------------------|
D|-------------7--7-------------------|
A|-10-10-10-10-------8-8-8-8----------|
E|----------------------------8-8-8-8-|

G|-----------------------------------------| 
D|-------------7-7-7-7-10-10-10-10---------|
A|-10-10-10-10---------------------8-8-8-8-|
E|-----------------------------------------|

--------------------------------------------- 

G|-----------------------------------|
D|-----------7-7-7-7-----------------|
A|-10-10--10---------8-8-8-8---------|
E|---------------------------8-8-8-8-|

G|-----------------------------------------| 
D|-------------7-7-7-7-10-10-10-10---------|
A|-10-10-10-10---------------------8-8-8-8-|
E|-----------------------------------------|

---------------------------------------------

G|-------------------------------------|
D|-------------7-7-7-7-----------------|
A|-10-10-10-10---------8-8-8-8---------|
E|-----------------------------8-8-8-8-|

G|-----------------------------------------| 
D|-------------7-7-7-7-10-10-10-10---------|
A|-10-10-10-10---------------------8-8-8-8-|
E|-----------------------------------------|

Outro                                  Repeat till fade
G|----------------------------------------------------|
D|-------------------------------7~-7-----------------|
A|-8~-8-8~-8-----------8~-8-8~-8------8~-8-1010-10-10-|
E|-----------8~-8-8~-8--------------------------------|
Suggest correction
Give kudos to tab author, rate the tab!
1 2 3 4 5
comments
print report bad tab
guest
You may want to rate the tab now too:
select rating
Wanna post a correction for this tab? Suggest correction