Oops, an error
Loading. Please wait.

The Saltwater Room Tab

version 1
version 1

Whole song

Interactive

Video

269,723 views 60 this week
3 commentsread comments
1 2 3 4 5
x 72
add to favorites
launch autoscroll
font size
0
reset
how to read this tab
guitar tuner
Autoscroll
slow
fast
+/-
esc
set tempo
stop
Help us to improve Ultimate-Guitar.com Take our survey!
×
Author
Capo
5th fret
-------------------------------------------------------------------------------
                             THE SALTWATER ROOM - Owl City
-------------------------------------------------------------------------------
Tabbed by: Jowell
Tuning: Standard Capo 5th
-This is waaaayy better than any other tabs I could find for this song. Enjoy:)

e|---------------------------------------|
B|--------3-------0-----------3-------0--|
G|------0---0---0-----------0---0---0----|
D|----2-------2-----------2-------2------|
A|--3-------------------3----------------|
E|---------------------------------------|

e|---------------------------------------|
B|----------------0----------------------|
G|--------2--------------------2-0-------|
D|------0---0---0------------0-----4-0---|
A|----2-------2------------2-----------2-|
E|--3--------------------3---------------|

e|---------------------------------------|
B|--------3-------0-----------3-------0--|
G|------0---0---0-----------0---0---0----|
D|----2-------2-----------2-------2------|
A|--3-------------------3----------------|
E|---------------------------------------|

e|---------------------------------------|
B|----------0-----------------3---0------|
G|------0-2---2-0-----------0---2---0----|
D|----2-----------2-------2--------------|
A|----------------------3----------------|
E|--0------------------------------------
Suggest correction
comments
print report bad tab
3 comments total.
+5 reply
rikphoenix 10 Jun 09, 2008 03:41 PM

An excellent rendition. Thanks:) If you figure out the piano/keyboard and have someone play it while you play this, it sounds really good.

0 reply
JP_YM_ZW 41 Nov 25, 2009 11:32 PM

e|---------------------------------------|
B|----------0-----------------3---0------|
G|------0-2---2-0-----------0---2---2-0--|
D|----2-----------2-------2--------------|
A|----------------------3----------------|
E|--0------------------------------------|

Should it not be like this?

0 reply
zombiesanti 21 Aug 23, 2011 03:58 AM

I reckon the last bit should go

e|---------------------------------------|
B|----------0-----------------3/5--------|
G|------0-2---2-0-----------0-----2------|
D|----2-----------2-------2---------4-0--|
A|----------------------3----------------|
E|--0------------------------------------|

guest
You may want to rate the tab now too:
select rating
Wanna post a correction for this tab? Suggest correction