Oops, an error
Loading. Please wait.

The Saltwater Room Tab

version 2
version 2

Whole song

Interactive

Video

32,882 views 10 this week
1 commentread comment
1 2 3 4 5
excellent!
x 25
add to favorites
launch autoscroll
font size
0
reset
how to read this tab
guitar tuner
Tab Pro tools
  • play this tab
  • loop segment
  • change instrument
  • show fretboard
  • metronome
×
Best way to learn
"The Saltwater Room"
Autoscroll
slow
fast
+/-
esc
set tempo
stop
Capo
1st fret
Other ppl are doing it capo'd I think it sounds better open

  Fadd9         Fmaj7 Fadd9      Fmaj7
e|-------3-------0--------3-------0----|
B|-----1---1---1--------1---1---1------|
G|---2-------2--------2-------2--------|
D|-3----------------3------------------|
A|-------------------------------------|
E|-------------------------------------|

   Cadd9                
e|---------------0----------------------|
B|-------3-----3-------------3p1p0------|
G|-----0---0---------------0-------0----|
D|---2-------2-----------2-----------2--|
A|-3-------------------3----------------|
E|--------------------------------------|

  Fadd9         Fmaj7 Fadd9      Fmaj7
e|-------3-------0--------3-------0----|
B|-----1---1---1--------1---1---1------|
G|---2-------2--------2-------2--------|
D|-3----------------3------------------|
A|-------------------------------------|
E|-------------------------------------|

  Amadd9            Fadd9   Gadd9   
e|-------7-------5--------3/5------------|
B|-----5---5---5--------1-----3----------|
G|---5-------5--------2---------4--------|
D|-7----------------3-------------5------|
A|---------------------------------------|
E|---------------------------------------|

Then Repeat. Not too hard, the Amadd9 is the tricky bit
comments
print report bad tab
1 comment total.
0 reply
werechild wrote on December 8 2010, 04:21 pm

its not played with a capo live im glad you realized this very cool

I want to post or [tab]
guest
You may want to rate the tab now too:
select rating
Please do not post tabs as comments. Select "correction" instead!