Oops, an error
Loading. Please wait.

The Saltwater Room Tab

version 4
version 4

Intro

Whole song

Interactive

Video

6,782 views 3 this week
no commentswrite comment
1 2 3 4 5
accurate
x 4
add to favorites
launch autoscroll
font size
0
reset
how to read this tab
guitar tuner
Tab Pro tools
  • play this tab
  • loop segment
  • change instrument
  • show fretboard
  • metronome
Autoscroll
slow
fast
+/-
esc
set tempo
stop
Contributor
Difficulty
intermediate
~~~~~~~~~~~~~~~~~~~~~~~~~~~~~~~~~~~~~~~~~~~~~~~~~~~~~~~~~~~~~~~~~~~~~~~~~~~~~~
                           The Saltwater Room
			
			    Artist: Owl City

		    As Heard on the Album "Ocean Eyes"

(The lyrics are slightly different on this version, as is the notation)
~~~~~~~~~~~~~~~~~~~~~~~~~~~~~~~~~~~~~~~~~~~~~~~~~~~~~~~~~~~~~~~~~~~~~~~~~~~~~~



5th Fret Requires Capo!

Standard Tune

/ = Slide Finger



  Intro & Verse

e|---------------------------------------|
B|--------3-------0-----------3-------0--|
G|------0---0---0-----------0---0---0----|
D|----2-------2-----------2-------2------|
A|----------------------3----------------|
E|---------------------------------------|

e|---------------------------------------|
B|----------------0----------------------|
G|--------2--------------------2-0-------|
D|------0---0---0------------0-----4-0---|
A|----2-------2------------2-----------2-|
E|--3--------------------3---------------|

e|---------------------------------------|
B|--------3-------0-----------3-------0--|
G|------0---0---0-----------0---0---0----|
D|----2-------2-----------2-------2------|
A|--3-------------------3----------------|
E|---------------------------------------|

e|---------2-----------------------------|
B|-------0---0-----0----------3----------|
G|-----0-------0-4----------0---------2--|
D|---2--------------------2-------0-4----|
A|----------------------3----------------|
E|------------------------------3--------|



  Bridge toward the end of the track.

e|---------------------------------------|
B|---------------------------------------|
G|-----0---0-2/4--0-----0---0-2/4--0-----|
D|---2---2------------2---2--------------|
A|---------------------------------------|
E|---------------------------------------|

e|---------------------------------------|
B|---------------------------------------|
G|-----0--------------0------------------|
D|---2---2-0----0---2---2-0--------------|
A|-----------2--------------3-2----------|
E|------------------------------3--------|

e|---------------------------------------|
B|---------------------------------------|
G|-----0---0-2/4--0-----0---0-2/4--0-----|
D|---2---2------------2---2--------------|
A|---------------------------------------|
E|---------------------------------------|

e|---------------------------------------|
B|---------------------------------------|
G|---------------------------------------|
D|-----0---0-2/4--0-----0----------------|
A|---2---2------------3---3-2-0-2-0------|
E|----------------------------------3----|


This is my first tab. 

I hope you enjoy it.
comments
print report bad tab
I want to post or [tab]
guest
You may want to rate the tab now too:
select rating
Please do not post tabs as comments. Select "correction" instead!