Oops, an error
Loading. Please wait.

The Technicolor Phase Chords

version 2
version 2

Whole song

2,849 views 1 this week
no commentswrite comment
1 2 3 4 5
2 more votes to show rating
add to favorites
launch autoscroll
font size
0
reset
transpose
0
reset
display chords
guitar tuner
Autoscroll
slow
fast
+/-
esc
set tempo
stop
Help us to improve Ultimate-Guitar.com Take our survey!
×
Owl City
The Technicolor Phase
Alice In Wonderland Soundtrack
2010
Submitted by: paramore_fans@yahoo.com

Key: Bb

Tuning: Standard EADGBe

Chords used:
Bb - x13331
F -  133211
Cm - x35543
Gm - 355333
Eb - x68886


Intro: Bb-F-Cm-Eb-- x2


Verse 1:
Bb                  F
I am the red in the rose
                   Eb
the flowers on the blankets 
on your bedroom floor
    Bb                   F
And I am the gray in the ghost
                     Cm
that hides with your clothes 
                   Eb
behind your closet door
Bb
I am the green in the 
F
grass that bends back
     Eb
from underneath your feet
    Bb
And I am the blue in 
     F
your back alley view
            Cm
where the horizon and 
             Eb
the rooftops meet


Breakdown: 
Bb--Gm-Eb-F--Gm-Eb-Bb--Gm-Eb-F-


Chorus:
Gm       Eb          Bb
  If you cut me I suppose 
                  Gm
I would bleed the colors
       Eb       F
of the evening stars
Gm        Eb    Bb
  You can go anywhere you wish 
              Gm
cause I'll be there
    Eb       F
wherever you are
(wherever you are)


Synthesizer Solo: Gm-Eb-Bb-Gm-Eb-F- x2
e|----------18-----------------------------18------25-20-----|
B|-15-16-18-----18-16-15--18------15-16-18-----18---------18-|
G|----------------------------15-----------------------------|
D|-----------------------------------------------------------|
A|-----------------------------------------------------------|
E|-----------------------------------------------------------|

e|----------18--------------------------------------11--------------23-22-------|
B|-15-16-18--------18-15--18--16-18--------13-15-13----------13--23-------23----|
G|--------------15------------------15-----------------15-14-----------------22-|
D|--------------------------------------15--------------------------------------|
A|------------------------------------------------------------------------------|
E|------------------------------------------------------------------------------|


Interlude: Eb--F-- x2

 Eb                    F
(I will always be your gaze
     Eb
when we are lost in the 
            F
technicolor phase)


Verse 2:
Bb
I am the black 
       F
in the book
                   Eb
the letters on the pages
that you memorize
    Bb
And I am the orange 
       F
in the overcast
   Cm
of color that 
         Eb
you visualize
Bb
I am the white in the 
F
walls that soak up
        Eb
all the sound when 
you cannot sleep
    Bb
And I am the peach in the 
 F
starfish on the beach
              Cm
that wish the harbor 
                Eb
wasn't quite so deep


(Repeat Breakdown)
(Repeat Chorus)
(Repeat Synthesizer Solo twice)


Outro:
             Bb F Gm Eb F
Wherever You Are
(Repeat Until fade)
Suggest correction
Give kudos to tab author, rate the tab!
1 2 3 4 5
comments
print report bad tab
guest
You may want to rate the tab now too:
select rating
Wanna post a correction for this tab? Suggest correction