Oops, an error
Loading. Please wait.

The Tip Of The Iceberg Tab

1,417 views 1 this week
no commentswrite comment
1 2 3 4 5
please rate
add to favorites
launch autoscroll
font size
0
reset
how to read this tab
guitar tuner
Autoscroll
slow
fast
+/-
esc
set tempo
stop
Help us to improve Ultimate-Guitar.com Take our survey!
×
Artist: Owl City
Album: Ocean Eyes
Song: The Tip of The Iceberg
Submitted by: gustavoaraujo999@hotmail.com

   C#    F#    G#    A#
|-----|-----|-----|-----|
|-----|-----|-----|-----|
|--7--|-----|-----|-----|
|--7--|--4--|--6--|--8--|
|--5--|--4--|--6--|--8--|
|-----|--2--|--4--|--6--| 

Verse 1:
"Welcome back, winter once again..." 
e|---------------------------|
B|---------------------------|
G|--7-7----------------------|
D|--7-7---4-4---6--8--4------| 2x
A|--5-5---4-4---6--8--4------|
E|--------2-2---4--6--2------|
 

Pre-Chorus:
"But I keep you warm..." 
e|------------------------|----|-------------------------------|
B|------------------------|----|-------------------------------|
G|------------------------|----|-------777---------------------|
D|--------4-4---666--8-8--|----|-4-4---777--4-4----------------|
A|--------4-4---666--8-8--|-3x-|-4-4---555--4-4----------------|
E|--------2-2---444--6-6--|----|-2-2--------6-6----------------|


Verse 2:
"If speed's a pro, inertia must be a con..." 
e|------------------------------------------------------|
B|------------------------------------------------------|
G|--7-7-------------------------------------------------|
D|--7-7---4-4---6--8--4---------------------------------| 2x
A|--5-5---4-4---6--8--4---------------------------------|
E|--------2-2---4--6--2---------------------------------|

Pre-Chorus:
"Cause I keep you warm..." 
e|------------------------|----|-------------------------------|
B|------------------------|----|-------------------------------|
G|------------------------|----|-------777---------------------|
D|--------4-4---666--8-8--|----|-4-4---777--4-4----------------|
A|--------4-4---666--8-8--|-3x-|-4-4---555--4-4----------------|
E|--------2-2---444--6-6--|----|-2-2--------6-6----------------|

Chorus:
"Peer over the edge. Can you see me..."
e|------------------------|----|-------------------------------|
B|------------------------|----|-------------------------------|
G|------------------------|----|-------777---------------------|
D|--------444---666--8-8--|----|-4-4---777--4-4----------------| 2x
A|--------444---666--8-8--|-3x-|-4-4---555--4-4----------------|
E|--------222---444--6-6--|----|-2-2--------6-6----------------|

Interlude:
e|--------------------|----|---------------------------|
B|--------------------|----|---------------------------|
G|--------------------|----|------7--------------------|
D|--------4----6---8--|----|-4----7---4----------------|
A|--------4----6---8--|-3x-|-4----5---4----------------|
E|--------2----4---6--|----|-2--------6----------------|

Instrumental:
e|-------------------|
B|-------------------|
G|----7--------------|
D|-6--7--4-----------| 2x
A|-6--5--4-----------|
E|-4-----2-----------|

Bridge:
"Farewell powdery paradise..." 
e|----------------------------|
B|----------------------------|
G|------777-------------------|
D|-666--777--444--------------| 4x
A|-666--577--444--------------|
E|-444-------222--------------|

Outro:
"Snow drifts build up and enfold us..."
e|------------------------|----|-------------------------------|
B|------------------------|----|-------------------------------|
G|------------------------|----|-------777---------------------|
D|--------444---666--8-8--|----|-4-4---777--4-4----------------|
A|--------444---666--8-8--|-3x-|-4-4---555--4-4----------------|
E|--------222---444--6-6--|----|-2-2--------6-6----------------|

Any problems, just send me an e-mail.

Suggest correction
Give kudos to tab author, rate the tab!
1 2 3 4 5
comments
print report bad tab
guest
You may want to rate the tab now too:
select rating
Please do not post tabs as comments. Select "correction" instead!