Oops, an error
Loading. Please wait.

Umbrella Beach Tab

3,514 views 1 this week
1 commentread comment
1 2 3 4 5
excellent!
x 5
add to favorites
launch autoscroll
font size
0
reset
how to read this tab
guitar tuner
Autoscroll
slow
fast
+/-
esc
set tempo
stop
Help us to improve Ultimate-Guitar.com Take our survey!
×
Difficulty
novice
   Stems and gears...
E|-------------------------------------------------------|
B|-------------------------------------------------------|
G|-------------------------------------------------------|
D|------------------------------------2---2--0---------0-|
A|--------------------0--3--2----0--3----------3--0--3---|
E|--1--3--0---0--1--3----------3-------------------------|

   Can you feel the drops...
E|-------------------------------------------------------------------------|
B|-------------------------------------------------------------------------|
G|-------------------------------------------------------------------------|
D|----------------------------------2-0-----------2--2-2-0-------0-0----2-0|
A|----------------------0--3--2---------3-2--0--3----------3-0-3------0----|
E|--1--3--0--1--0--1--3---------3-3----------------------------------3-----|

    Home will always be here...
E|-------------------------------------------------------------------------|
B|-------------------------------------------------------------------------|
G|----0-----------------------0----------------------0---------------------|
D|------2-----------0---0--2----2------------0----------2-------------0----|
A|--3-----3---0-------3------------3----0-------3----------3----0--------3-|
E|-----------3---3--------------------3----3------------------3----3-3-----|

   goodbye, so I'll...             Home is a boxcar...
E|------------------------------|------------------------------------|
B|------------------------------|------------------------------------|
G|----------0-------------------|----------------0-------------------|
D|--0--2--2---2-----------0-----|--2--0--2--3-0-----3--0-------------|
A|---------------3----0------3--|-------------------------3--3-0-----|
E|------------------3---3-------|---------------------------------3--|

    hidden under...
E|------------------------------------------------------------------|
B|------------------------------------------------------------------|
G|--------------0---------------------------------------------------|
D|--0--2--3--0-----3--0---------------------------------------------|
A|-----------------------3------------------------------------------|
E|------------------------------------------------------------------|
Suggest correction
comments
print report bad tab
1 comment total.
0 reply
dreadnought4evr 10 wrote on April 18 2010, 11:13 pm

good.
very very good.

guest
You may want to rate the tab now too:
select rating
Please do not post tabs as comments. Select "correction" instead!