Oops, an error
Loading. Please wait.

Vanilla Twilight Tab

version 1
version 1

Whole song

Interactive

94,308 views 12 this week
1 commentread comment
1 2 3 4 5
x 10
add to favorites
launch autoscroll
font size
0
reset
how to read this tab
guitar tuner
Autoscroll
slow
fast
+/-
esc
set tempo
stop
Help us to improve Ultimate-Guitar.com Take our survey!
×
Author
Difficulty
intermediate
hello, this is like intro/verse. im sorry that i didnt post the whole song. [: buy 
their new album!

LOTS OF BARRE CHORDS OK! INTERMEDIATES [:

intro/verse
(barre chords, sorry i dont know the names, im lame)                
E||--7----------7-------|--2--------2-------|
B||--7----------7-------|--2--------2-------|
G||----8----------8-----|----3--------3-----|
D||------9----------9---|------4--------4---|
A||------9----------9---|------4--------4---|
E||--7----------7-------|--2--------2-------|
  "The stars lean        down to kiss you"

                         barre chord E? pretty sure
E||--4----------4-------|--7---------7------|
B||--4----------4-------|-----9---------9---|
G||--4----------4-------|-----9---------9---|
D||------6----------6---|-----9---------9---|
A||------6----------6---|--7---------7------|
E||--4----------4-------|--7---------7------|
  "And I lie             awake and miss you"



yeah so thats how it pretty much goes throughout IN THE INTRO.
OH AND THE LITTLE RIFF THING..


the cool keyboard thing             x2
E||-----------------------------------------------------------------------|
B||-----------------------------------------------------------------------|
G||-----------------------------9--8--------------------------8--8--------|
D||--------9--11---------9------------11--9---------9--11--9--------------|
A||-9--11---------9--11-----11---------------9--11------------------11----|
E||-----------------------------------------------------------------------|

gah this is close enough its just that im too lazy to actually figure out the whole thing
enjoy [:
Suggest correction
comments
print report bad tab
1 comment total.
-1 reply
drewh1991 10 Dec 23, 2009 05:14 PM

This is how I play it:

(/) Slide Up  (\) Slide Down  (h) Hammer On  (p) Pull Off  (b) Bend (r) Release (v) Vibrato

E|-----------------------------------------------------------------------------------
B|-----------------------------------------------------------------------------------
G|------------9---11------------9--------11\14---13---11---9------------9---11-------
D|---9---11------------9---11-------11-------------------------9---11----------------
A|-----------------------------------------------------------------------------------
E|-----------------------------------------------------------------------------------

E|------------------------------------
B|------------------------------------
G|--------13---13-------9---11--------
D|---11-------------9------------11---
A|------------------------------------
E|------------------------------------

guest
You may want to rate the tab now too:
select rating
Wanna post a correction for this tab? Suggest correction