Oops, an error
Loading. Please wait.

Vanilla Twilight Tab

version 3
version 3

Whole song

Interactive

5,080 views 1 this week
no commentswrite comment
1 2 3 4 5
1 last vote to show rating
add to favorites
launch autoscroll
font size
0
reset
how to read this tab
guitar tuner
Autoscroll
slow
fast
+/-
esc
set tempo
stop
Help us to improve Ultimate-Guitar.com Take our survey!
×
Author
Difficulty
intermediate
Version #1 (As far as I can tell, this is the most accurate in pitch)

E||-------13-15-15-------13----17/18-17-15-13-------13-15-15-13-16/17-17------|
B||-13-15----------13-15----15----------------13-15----------------------15---|
G||---------------------------------------------------------------------------|
D||---------------------------------------------------------------------------|
A||---------------------------------------------------------------------------|
E||---------------------------------------------------------------------------|

E||-------13-15-15-------13----17/18-17-15-13-------13-15----13-15-------13---|
B||-13-15----------13-15----15----------------13-15-------15-------15-13------|
G||---------------------------------------------------------------------------|
D||---------------------------------------------------------------------------|
A||---------------------------------------------------------------------------|
E||---------------------------------------------------------------------------|

Version #2 (A lower version of the same tab)

E||---------------------------------------------------------------------------|
B||----------------------------10/11-10---------------------------------------|
G||-------10-12-12-------10-------------12-10-------10-12-12-10-13/14-14------|
D||-10-12----------10-12----12----------------10-12----------------------12---|
A||---------------------------------------------------------------------------|
E||---------------------------------------------------------------------------|

E||---------------------------------------------------------------------------|
B||----------------------------10/11-10---------------------------------------|
G||-------10-12-12-------10-------------12-10-------10-12----10-12-------10---|
D||-10-12----------10-12----12----------------10-12-------12-------12-10------|
A||---------------------------------------------------------------------------|
E||---------------------------------------------------------------------------|

Version #3 (A lower yet version)

E||---------------------------------------------------------------------------|
B||---------------------------------------------------------------------------|
G||---------------------------------------------------------------------------|
D||------------------------7/8-7----------------------------------------------|
A||------8-10-10------8----------10-8------8-10-10-8-11/12-12-----------------|
E||-8-10---------8-10---10------------8-10--------------------10--------------|

E||---------------------------------------------------------------------------|
B||---------------------------------------------------------------------------|
G||---------------------------------------------------------------------------|
D||------------------------7/8-7----------------------------------------------|
A||------8-10-10------8----------10-8------8-10----8-10------8----------------|
E||-8-10---------8-10---10------------8-10------10------10-8------------------|

This is my first tab, and I have not included any chords since they have already been 
by other musicians... please rate and enjoy!

PS: Guys, your girlfriend will absolutely melt if you play this song for them!
Suggest correction
Give kudos to tab author, rate the tab!
1 2 3 4 5
comments
print report bad tab
guest
You may want to rate the tab now too:
select rating
Wanna post a correction for this tab? Suggest correction