Oops, an error
Loading. Please wait.

Youre Not Alone tab

247 views 1 this week
no commentswrite comment
1 2 3 4 5
2 more votes to show rating
add to favorites
×
Save as Personal and add changes to this tab that will be seen only by you. Learn more ›
×
You can save this tab as Personal to edit and correct it or add notes. All changes will be seen only by you. Learn more »
launch autoscroll
font size
0
reset
how to read this tab
guitar tuner
edit
Autoscroll
slow
fast
+/-
esc
set tempo
stop
-------------------------------------------------------------------------------
                            You're Mot Alone - Owl City
-------------------------------------------------------------------------------
Based off Youtube Cover : Owl City-You're Not Alone (Fan Piano Cover)
https://www.youtube.com/watch?v=tTf5evWJczM
Channel: https://www.youtube.com/user/n69481
BUT IN WRITING!!!

MAKE SURE TO RATE THE TAB AND FOLLOW THE YOUTUBER CHANNEL IF YOU FIND IT HELPFUL!! ENJOY IT <3

Tuning:Standard Tuning 
3rd capo

Verse 1:
e|---------------------|---------------|---------------|
B|---------------------|---------------|---------------|
G|-2--2--2--2--0-----2-|----2--0-----0-|-0--2--0-------|
D|----------------3----|-3--------3----|----------3--0-|
A|---------------------|---------------|---------------|
E|---------------------|---------------|---------------|
Some days I barely hold on | When life drags me down | I wanna let go

e|---------------------|---------------|---------------|
B|---------------------|---------------|---------------|
G|-2--2--2--2--0-----2-|----2--0-----0-|-0--2--0-------|
D|----------------3----|-3--------3----|----------3--0-|
A|---------------------|---------------|---------------|
E|---------------------|---------------|---------------|
But when my spirit is weak | You come to my aid | And strengthen my soul

Pre-Chorus:
e|---------------|---------------|---------------------|
B|-------------1-|-------------1-|---------------------|
G|-2--2--0--2----|-2--2--0--2----|-0--0--------0--2----|
D|---------------|---------------|-------2--3--------0-|
A|---------------|---------------|---------------------|
E|---------------|---------------|---------------------|
I’m lost without You | I’ll never doubt You | Your grace is beyond compare

e|---------------|---------------|---------------------|
B|-------------1-|-------------1-|---------------------|
G|-2--2--0--2----|-2--2--0--2----|-0--0--------0--2----|
D|---------------|---------------|-------2--3--------0-|
A|---------------|---------------|---------------------|
E|---------------|---------------|---------------------|
And though when it rains, it pours | You know all I have is Yours | You smile when you hear my prayer

Chorus:
e|------------------------|----------------------0--1--0----|
B|----1--0--1-----1--0--1-|----1--0--1--------3-----------1-|
G|-0-----------0----------|-0-----------2--2----------------|
D|------------------------|---------------------------------|
A|------------------------|---------------------------------|
E|------------------------|---------------------------------|
You rescued me and I believe | That God is love and He is all I need

e|------------|------------------|
B|----3--3--3-|----3--3--5--1--1-|
G|-0----------|-0----------------|
D|------------|------------------|
A|------------|------------------|
E|------------|------------------|
From this day forth | for all eternity

e|------------------------|----------------------0--1--0----|
B|----1--0--1-----1--0--1-|----1--0--1--------3-----------1-|
G|-0-----------0----------|-0-----------2--2----------------|
D|------------------------|---------------------------------|
A|------------------------|---------------------------------|
E|------------------------|---------------------------------|
I’ll never wander on my own | For I am Yours until you call me home

e|------------|------------------|
B|----3--3--3-|----3--3--5--1--1-|
G|-0----------|-0----------------|
D|------------|------------------|
A|------------|------------------|
E|------------|------------------|
I close my eyes | and I can hear You say

e|--------------3--0-------------|-------------3--0-------------|
B|----1--3--1---------3--1--3----|----1--3--1--------3--1--3----|
G|-0---------------------------2-|-0--------------------------2-|
D|-------------------------------|------------------------------|
A|-------------------------------|------------------------------|
E|-------------------------------|------------------------------|
You’re not alone, ooh! | You’re not alone, ooh!

Verse 2:
e|---------------------|---------------|---------------|
B|---------------------|---------------|---------------|
G|-2--2--2--2--0-----2-|----2--0-----0-|-0--2--0--2----|
D|----------------3----|-3--------3----|-------------0-|
A|---------------------|---------------|---------------|
E|---------------------|---------------|---------------|
Some days I just can’t go on | I stumble and fall | And I hang my head

e|---------------------|---------------|----0-------------|-0----|
B|---------------------|-------0--1--1-|-1-----3--1--3--3-|----3-|
G|-2--2--2--2--0-----2-|-2--2----------|------------------|------|
D|----------------3----|---------------|------------------|------|
A|---------------------|---------------|------------------|------|
E|---------------------|---------------|------------------|------|
But You reach out for my hand | And You lift me up | Again and again | Oh, yes, You do

Pre-Chorus:
e|---------------|---------------|---------------------|
B|-------------1-|-------------1-|---------------------|
G|-2--2--0--2----|-2--2--0--2----|-0--0--------0--2----|
D|---------------|---------------|-------2--3--------0-|
A|---------------|---------------|---------------------|
E|---------------|---------------|---------------------|
I’m lost without You | I’ll never doubt You | Your grace is beyond compare

e|---------------|---------------|---------------------|
B|-------------1-|-------------1-|---------------------|
G|-2--2--0--2----|-2--2--0--2----|-0--0--------0--2----|
D|---------------|---------------|-------2--3--------0-|
A|---------------|---------------|---------------------|
E|---------------|---------------|---------------------|
And though when it rains, it pours | You know all I have is Yours | You smile when you hear my prayer

Chorus:
e|------------------------|----------------------0--1--0----|
B|----1--0--1-----1--0--1-|----1--0--1--------3-----------1-|
G|-0-----------0----------|-0-----------2--2----------------|
D|------------------------|---------------------------------|
A|------------------------|---------------------------------|
E|------------------------|---------------------------------|
You rescued me and I believe | That God is love and He is all I need

e|------------|------------------|
B|----3--3--3-|----3--3--5--1--1-|
G|-0----------|-0----------------|
D|------------|------------------|
A|------------|------------------|
E|------------|------------------|
From this day forth | for all eternity

e|------------------------|----------------------0--1--0----|
B|----1--0--1-----1--0--1-|----1--0--1--------3-----------1-|
G|-0-----------0----------|-0-----------2--2----------------|
D|------------------------|---------------------------------|
A|------------------------|---------------------------------|
E|------------------------|---------------------------------|
I’ll never wander on my own | For I am Yours until you call me home

e|------------|------------------|
B|----3--3--3-|----3--3--5--1--1-|
G|-0----------|-0----------------|
D|------------|------------------|
A|------------|------------------|
E|------------|------------------|
I close my eyes | and I can hear You say

e|--------------3--0-------------|-------------3--0-------------|
B|----1--3--1---------3--1--3----|----1--3--1--------3--1--3----|
G|-0---------------------------2-|-0--------------------------2-|
D|-------------------------------|------------------------------|
A|-------------------------------|------------------------------|
E|-------------------------------|------------------------------|
You’re not alone, ooh! | You’re not alone, ooh!

Bridge:
e|-0--0--0-------------------|----0--0--3--0----------------|
B|----------3--3--1--1-----3-|----------------3--1--1-----3-|
G|----------------------2----|-0-----------------------2----|
D|---------------------------|------------------------------|
A|---------------------------|------------------------------|
E|---------------------------|------------------------------|
In the face of my depravity | For God so loved the world He died for me


e|----0-----------0-------|----0--------------------0--3-|
B|-1-----1--3--1-----1--3-|-1-----1--3--1--0--1--3-------|
G|------------------------|------------------------------|
D|------------------------|------------------------------|
A|------------------------|------------------------------|
E|------------------------|------------------------------|
My fire burns ‘til He returns | And takes me home beyond the galaxy

NEW KEY CHORUS: 
e|------------------------|-------------------0--2--3--2----|
B|----3--2--3-----3--2--3-|----3--2--3--0--0--------------3-|
G|-2-----------2----------|-2-------------------------------|
D|------------------------|---------------------------------|
A|------------------------|---------------------------------|
E|------------------------|---------------------------------|
You rescued me and I believe | That God is love and He is all I need

e|----0--0--0-|----0--0--2-------|-0--0--2-------|
B|------------|-------------3--3-|----------3--3-|
G|-2----------|-2----------------|---------------|
D|------------|------------------|---------------|
A|------------|------------------|---------------|
E|------------|------------------|---------------|
From this day forth | for all eternity | All eternity!

e|------------------------|-------------------0--2--3--2----|
B|----3--2--3-----3--2--3-|----3--2--3--0--0--------------3-|
G|-2-----------2----------|-2-------------------------------|
D|------------------------|---------------------------------|
A|------------------------|---------------------------------|
E|------------------------|---------------------------------|
I’ll never wander on my own | For I am Yours until you call me home

e|----0--0--0-|----0--0--2-------|
B|------------|-------------3--3-|
G|-2----------|-2----------------|
D|------------|------------------|
A|------------|------------------|
E|------------|------------------|
I close my eyes | and I can hear You say

e|-------0-----5--2--0-----0----|-------0-----5--2--0-----0----|
B|----3-----3-----------3-----0-|----3-----3-----------3-----0-|
G|-2----------------------------|-2----------------------------|
D|------------------------------|------------------------------|
A|------------------------------|------------------------------|
E|------------------------------|------------------------------|
You’re not alone! | You’re not alone!

e|-2--2-|-2--0-----0-0-|-3--2-------|
B|------|-------3------|-------3--3-|
G|------|--------------|------------|
D|------|--------------|------------|
A|------|--------------|------------|
E|------|--------------|------------|
You’re not | You’re not alone | Never alone...



************************************

| /   slide up
| \   slide down
| h   hammer-on
| p   pull-off
| ~   vibrato
| +   harmonic
| x   Mute note
| b   Bend
| pb  Pre-bend
| br  Bend release
| pbr Pre-bend release
| brb Bend release bend

************************************
Suggest correction
Creating personal tab
Creating personal tab
You can edit any tab online and save it as your Personal.

You can edit, replace or remove any tab part or add personal notes – all changes will be seen only by you.

Personal tabs can be accessed anytime from any device, even offline.
Learn more »
Give kudos to tab author, rate the tab!
1 2 3 4 5
comments
print report bad tab
guest
You may want to rate the tab now too:
select rating
Wanna post a correction for this tab? Suggest correction