Oops, an error
Loading. Please wait.

Domino Effect Acoustic tab

version 3
version 3

Whole song

by Ozma
2,896 views 12 this week
no commentswrite comment
1 2 3 4 5
x 7
add to favorites
×
Save as Personal and add changes to this tab that will be seen only by you. Learn more ›
×
You can save this tab as Personal to edit and correct it or add notes. All changes will be seen only by you. Learn more »
launch autoscroll
font size
0
reset
how to read this tab
guitar tuner
edit
Autoscroll
slow
fast
+/-
esc
set tempo
stop
Author
Difficulty
Unregistered
intermediate
OZMA
Domino Effect (acoustic)
Tabbed by Mike A


This is from the acoustic track after Battlescars on RRP3... listen to the album for the 
because i dont want to take the time to write that out

tuned down to eb (duh)

e:------------------------------------------------------------------------|
B:--2--0---------------2----2-----3--0----0---------------0--0----2-------|
G:--------2--------2-------------------------2----------1-----------2-----|
D:-----------2----------------------------------2-------------------------|
A:--0-----------0--------------2-------------------2-----------0----------|
E:----------------------------------------0-----------0----------------4--|


e:-----------2----------------------------------------------------|
B:--------2-------------------------------------------------------|
G:-----2---------9-9-7-7-6--------------7---7-7-6-6-5-6-----------|
D:--------------------------6-------6-9---------------------------|
A:-------------------------------------------0--------------------|
E:--2--------------0-------------0----------------------0---------|


e:------------------------------------------------------------------------|
B:--2--0---------------2----2-----3--0----0---------------0--0----2-------|
G:--------2--------2-------------------------2----------1-----------2-----|
D:-----------2----------------------------------2-------------------------|
A:--0-----------0--------------2-------------------2-----------0----------|
E:----------------------------------------0-----------0----------------4--|


e:-----------2---------------------------------------------------|
B:--------2------------------------------7-------3-2-2-1-2-------|
G:-----2---------9-9-7-7-6----------4-7--7--7----4-2-2-1-2-------|
D:-----------4--------------9-------6-9-----9--------------------|
A:--------------------------7--------------------0----------4----|
E:--2--------------0-------------0-------------------------------|


e:-----------------------------------------------------------------------------------------|
B:----------------------------------------------3--------------------------------2---------|
G:-------------------------------6----------------4-3-4------------4---------------2-1-2---|
D:--7--9--6-----3--4-6-7----6--4--------------------------------2-----3--------------------|
A:--5-----7--9--4--6-8-9--7----5---4--------------------------2-4--------------------------|
E:-----------------------------------7-5-4-2-0------------2-4-----------4-2-1-2------------|

e:------------------------------||
B:------------------------------||
G:------------------------------||
D:--6-4---2-0-------------------||
A:----5-----2--4--2-------------||
E:----------------0-------------||


if there are any mistakes... tough. you can fix them if you want. but there shouldn't be.
Suggest correction
Creating personal tab
Creating personal tab
You can edit any tab online and save it as your Personal.

You can edit, replace or remove any tab part or add personal notes – all changes will be seen only by you.

Personal tabs can be accessed anytime from any device, even offline.
Learn more »
comments
print report bad tab
guest
Wanna post a correction for this tab? Suggest correction