Oops, an error
Loading. Please wait.

The Ups And Downs bass

by Ozma
329 views 1 this week
no commentswrite comment
1 2 3 4 5
3 more votes to show rating
add to favorites
×
Save as Personal and add changes to this tab that will be seen only by you. Learn more ›
×
You can save this tab as Personal to edit and correct it or add notes. All changes will be seen only by you. Learn more »
launch autoscroll
font size
0
reset
guitar tuner
edit
Autoscroll
slow
fast
+/-
esc
set tempo
stop
Author
Difficulty
Song: The Ups And Downs
Band: Ozma
Tabbed By: Chandler [cdebard@charter.net]
Tuning: Eb standard


Intro

"I've been cheating on you..."
bass comes in on off beat after the first snare after he sings: ever since we broke up

G|15-16--15-16----17-19/21-1919-16-14~-12h14p12----12----------------------|
D|-------------17-------------------------------14----14-12-14-9-9h10-10h12|
A|-------------------------------------------------------------------------|
E|-------------------------------------------------------------------------|

G|-------------------------------------------------------------------------|
D|12-----------------------------------------------------------------------|
A|---12--------------------------------------------------------------------|
E|------10-10~--12\\0------------------------------------------------------|


Pre-Chorus- picks up from the open E at the end of intro [notated as (0)]
G|----------------------------------------------------------------|
D|--------2-1-0---------------------------------------------------|
A|--------------3-3-33-0-0-000-5-5-555----------------------------|
E|(0)-0-0---------------------------------------------------------|x2

Chorus x2
G|----------------------------------------------------------------------|
D|------------5---------------------------------------------------------|
A|--------3-3---5-0-----2-2-222------5-55-------------------------------|
E|3-3-333-----------2-5---------0-00------------------------------------|

sometimes instead of the open E string towards the end, i slide from the A(2) to the 
fret, and back down to 5. i like the sound but i can't tell if its in the song.

Post-chorus

G|--------------------------------------------------------------------|
D|--------------------------5--5-7-4----------------------------------|
A|-----22-2-22------22-2-22---5------5-----------2------22-2-22-------|
E|3-55---------3-55--------------------7-5-2-2-2---3-55---------------|

Verse x 2

there are a few other fills that i don't have time to tab out

G|--------------------------------------------------------------|
D|--------------------------------------------------------------|
A|--------3-3-5-55----------------------------------------------|
E|3-3-333-------------------------------------------------------|


Pre-Chorus x2

Chorus variation

G|----------------------------------------------------------------------|
D|----------------------------------------------------------------------|
A|-----33----22-----5--------------333//12\\3--22----5------------------|
E|33-------------0------333//12\\3-----------------0--------------------|
                                                ^quickly mute after second B (2)

Verse x4 (regular way)

Post-Chorus again


Outro 1 (x 4)

G|12----12-14-11-------------------------------------|
D|---12----------12------------9---------------------|
A|------------------14-12-9-99-----------------------|
E|---------------------------------------------------|

Outro 2

G|----------------------------------------------------------------|
D|----------------------------------------------------------------|
A|----------22222222-----------22222222--------------222222222----|
E|3333-5555----------3333-5555-----------33333-55555--------------|

Outro 3

G|12----12-14-11------------------------------|
D|---12----------12---------------------------|
A|------------------14-12-9\\-----------------|
E|--------------------------------------------|


(fin)

            
            
Suggest correction
Creating personal tab
Creating personal tab
You can edit any tab online and save it as your Personal.

You can edit, replace or remove any tab part or add personal notes – all changes will be seen only by you.

Personal tabs can be accessed anytime from any device, even offline.
Learn more »
Give kudos to tab author, rate the tab!
1 2 3 4 5
comments
print report bad tab
guest
You may want to rate the tab now too:
select rating
Wanna post a correction for this tab? Suggest correction