Oops, an error
Loading. Please wait.

Demon Alcohol Tab

version 1
version 1

Whole song

Interactive

5,348 views 15 this week
1 commentread comment
1 2 3 4 5
2 more votes to show rating
add to favorites
launch autoscroll
font size
0
reset
how to read this tab
guitar tuner
×
Best way to learn
"Demon Alcohol"
Autoscroll
slow
fast
+/-
esc
set tempo
stop
Ozzy Osbourne - Demon Alcohol
Tabbed By: rap_boy
EMail: jason_wassup@hotmail.com


Tune down 1/2 step: Eb Ab Db Gb Bb Eb            

|-------------------------------------------|-------------------------|
|-------------------------------------------|-------------------------|
|------------------------------------------.|-------------------------|
|-7-5-7------------------------------------.|--7-5-7------------------|
|-5-3-5--3-------5ph--3-------5ph--3--------|--5-3-5--3---------------|
|----------5-4-5--------5-4-3--------5-4-3--|-----------5-4-3-3hold---|

|---------------------------------------------------------------------|
|---------------------------------------------------------------------|
|---------------------------------------------------------------------|
|-7-5-7-------7-5-7-------7-5-7-------7-5-7-------5-5-7-------7-5-7---|
|-5-3-5--5555-5-3-5--5555-5-3-5--5555-5-3-5--5555-3-3-5--5555-5-3-5---|
|---------------------------------------------------------------------|

|-------------------------------------------------------------------------------|
|-------------------------------------------------------------------------------|
|-------------------------------------------------------------------------------|
|-----------------5-7-----5-7--5-5-5-3-3-3-5-5-5--7------5-7--5-5-5-3-3-3-5-5-5-|
|-3-------3-------3-5-7-5-3-5--3-3-3-1-1-1-3-3-3--5--7-5-3-5--3-3-3-1-1-1-3-3-3-|
|---5-4-3---5-4-3-----5-3----------------------------5-3------------------------|

|---------------------------|
|-I'm your Demon Alcohol...-|
|---------------------------|
|--7------------------------|  Repeat from beginning of song
|--5hold--------------------|  then read from '2nd time'
|---------------------------|

2nd Time
|---------------------------|
|-I'm your Demon Alcohol...-|
|---------------------------|
|-7-------------------------|
|-5hold---------------------|
|---------------------------|

<========================================x2
|-----------------------------------------|
|-....Let's Party!------------------------|
|-----------------------------------------|
|-----------------------------------------|
|-12-10-9--10-8-7--12-10-9-8-7-8-10-10-10-|
|-10-8--7--8--6-5--10-8--7-6-5-6-8--8--8--|

Bridge
|--------------------------------------------\-----------|
|---------------------------------------------\-slide----|
|-19---17----16----17-16-14---17----16----14---\--14-----|
|-17---15----14----15-14-12---15----14----12----\-12-----|
|---00----00----00---------------00----00----------------|
|--------------------------------------------------------|

|--------------------------------------------------------|
|--------------------------------------------------------|
|-10----17----16----17-16-14---17-16-17-16-17-16---------|
|-17----15----14----15-14-12---15-14-15-14-15-14---------|
|----00----00----00--------------------------------------|
|--------------------------------------------------------|
Suggest correction
Give kudos to tab author, rate the tab!
1 2 3 4 5
comments
print report bad tab
1 comment total.
+1 reply
cookadam 221 Jan 10, 2006 06:53 AM

this shouldnt be down a half step...its to low to play along with. sounds right up a step

guest
You may want to rate the tab now too:
select rating
Wanna post a correction for this tab? Suggest correction