Oops, an error
Loading. Please wait.

Desire Tab

version 1
version 1

Whole song

Interactive

16,416 views 18 this week
no commentswrite comment
1 2 3 4 5
accurate
x 7
add to favorites
launch autoscroll
font size
0
reset
how to read this tab
guitar tuner
Autoscroll
slow
fast
+/-
esc
set tempo
stop
Help us to improve Ultimate-Guitar.com Take our survey!
×
This song is from the No More Tears Album. (Desire by Ozzy Osbourne)

Tabbed By: Creeping Death

Sounds best if tuned down 1/2 step: Eb Ab Db Gb Bb Eb

|--------------------------------------------------------------------------|
|--------------------------------------------------------------------------|
|--------------------------------------------------------------------------|
|--------------------------------------------------------------------------|
|-4-4----4-4-4---4-4-4---4-4-4---------------------------------------------|
|-2-2----2-2-2---2-2-2---2-2-2---and on and on...--------------------------|

                                             ||1st===============||
|-------------------------------------------------------------------------|
|---------------------5--4------------------------------------------------|
|-2---------4---------4--4---2-----------4------------------4^^(4)p2------|
|-2---------4----------------2-----------4-------2------------------------|
|------------------------------------------------2------------------------|
|-------------------------------------------------------------------------|

||2nd====================================================================||

|-----------------------------------------|
|---------------------17--17--17--17-\----|
|---------------------16^-16^-16^-16^\----|
|-----------------------------------------|
|-4--4---4-4-4--/-\-----------------------|
|-2------2-2-2----------------------------|

|------------------------------------------------------------------------|
|---------5----x------------5-------5-4------------5---x-4---------------|
|---------4----x--4---------4-------4-4------------4---x-4---------------|
|-4-------2----x--4---------2-------2-4-----4------2---x-4------2--------|
|-4---------------2----2-2-----2-2----------4------------2---2--2--------|
|-2--2-2--------------------------------x-x-2-0-2------------0--0--------|

|-------------------------------------------------------------------------|
|--------5------x----------------5--------5-4-----------------------------|
|--------4------x---4------------4--------4-4-----------------------------|
|--------2------x---4------------2--------2-4-----4-----------------------|
|-4-----------------2-----2-2-------2-2-----------4-----------------------|
|-2-0-2---------------------------------------x-x-2--0-2------------------|repeat as above

"I always knew what I wanted to be..."
|----------------------------------------------------------------------|
|--------------------------------5--5----------------------------------|
|-PM...........................--4--4----------4--4--------------------|
|--------------------------------2--2----------4--4-------2-----2------|
|-4-4-4-4-4-4-4-4-4-4-4-4-4-4-4----------------2--2----2--2-----2---4--|
|-2-2-2-2-2-2-2-2-2-2-2-2-2-2-2------------------------0--0-----0---2--|

"It drives 'em crazy .....cause I won't be cool"
|----------------------------------------------------------------------|
|----------------------------------------------------------------------|
|------------------4---------------------------------------------------|
|--2p0-------------4--------------------------2------------------------|
|--2p0----4-4-4----2------------4-4-4------2--2------------------------|
|---------2-0-2-----------------2-0-2------0--0------------------------|

"It's the same old desire..."
|----------------------------------------------------------------------|
|----------------------------------------------------------------------|
|-4--4--4--4--4-------------2---------------------4~~~~~~----------2---|
|-4--4--4--4--4-------4-----0----2-----2-------x--4----------------2---|
|-2--2--2--2--2---4---4-----0----2-----2-------x-----------------------|
|-----------------2---2-------------0----------------------------------|

HALF TIME FEEL:
|--------------------------|--------------------------------------------|
|------------------PH------|----------PM--------------------------------|
|-------------------4~~~~~~|-----------4~~~~----2-----------------------|
|-2-4------4--------4------|--2-4------4--------2-----------------------|
|-0-2----0-2---------------|--0-2---------------------------------------|

|-------------------\--//-------|---------------------------------------|
|--------------PH-4^\\//--------|---------------PM----------------------|
|-----------------4^-^^---------|----------------4~~~~--2---------------|
|-------------------------------|----------------4------2---------------|
|-2-4------4--------------------|--2-4-----4----------------------------|
|-0-2----0-2--------------------|--0-2---0-2----------------------------|
(end half time feel)

Solo (see page titled Desire(solo))

Palm Mute:
|------------------------------------|----------------------------------|
|------------------------------------|----------------------------------|
|-4-2-------4-2-4-2------4-2-4-2-----|-4-2-4-2-----4-2-4-2------4-2-----|
|------4-2-----------4-2---------4-2-|---------4-2----------4-2-----4-2-|
|------------------------------------|----------------------------------|
|------------------------------------|----------------------------------|
w/ slide
|-----------------------------------------------------------------------|
|----------5/(6)/-7---7-/-9--9-/-12--14/----17^-------------------------|
|--3-/-4-/-5/(6)/-7---7-/-9--9-/-12--14/--------------------------------|
|--3-/-4-/-5/(6)/-7---7-/-9--9-/-12-------------------------------------|
|-----------------------------------------------------------------------|
|-----------------------------------------------------------------------|
comments
print report bad tab
I want to post or [tab]
guest
You may want to rate the tab now too:
select rating
Please do not post tabs as comments. Select "correction" instead!