Oops, an error
Loading. Please wait.
We have Chord Pro version of Dreamer.
It's the closest thing you can get to the original song and it has interactive parts. Check out the tab »
×
10,040 views 21 this week
no commentswrite comment
1 2 3 4 5
x 3
add to favorites
×
Save as Personal and add changes to this tab that will be seen only by you. Learn more ›
×
You can save this tab as Personal to edit and correct it or add notes. All changes will be seen only by you. Learn more »
launch autoscroll
font size
0
reset
guitar tuner
backing track
0:00
0:00
edit
Autoscroll
slow
fast
+/-
esc
set tempo
stop
Author
--------------------------------------------------------------------------
			     Dreamer - Ozzy Osbourne
--------------------------------------------------------------------------

Tabbed By : Sepulnation
e-mail: sepulnation36@yahoo.co.in

Tuning: Standard (E,A,D,G)

INTRO/OUTRO: TIME 0:00/4:26
G|-------------------------------------------------------------------------|
D|-------------------------------------------------------------------------|
A|-4-----4-----------------------------------------------------------------|
E|--4-----4----------------------------------------------------------------|

VERSE 1 (Gazing through.....repeat itself, time after time): TIME: 0:12
"Gazing through the window..."   "...wondering will mother earth survive"
G|-----------------------------|-------------------------------------------|
D|-----------------------------|-------------------------------------------|
A|-4--6------------------------|--4--6-------------------------------------|
E|-----6-----------------------|-6----6------------------------------------|

"Hoping that mankind will stop abusing her"
G|-------------------------------------------------------------------------|
D|-------------------------------------------------------------------------|
A|--4--4-6-----------------------------------------------------------------|
E|-6-----------------------------------------------------------------------|

"...sometime"
G|-------------------------------------------------------------------------|
D|-------------------------------------------------------------------------|
A|-4-----------------------------------------------------------------------|
E|--4---4h6-4--4-4---------------------------------------------------------|
 (The rest of the verse is the same)

CHORUS 1: TIME: 1:00
"Im just a dreamer...."
G|-------------------------------------------------------------------------|
D|-------------------------------------------------------------------------|
A|-4-4h6-4--4--------------------------------------------------------------|
E|-----------6-6h8-6--6-1-11111-4--4h6-4-----------------------------------|

G|-------------------------------------------------------------------------|
D|-------------------------------------------------------------------------|
A|-4-4h6-4--4--------------------------------------------------------------|
E|-----------6-6h8-6--6-1-11111-4------------------------------------------|

VERSE 2 (I watch the sun go down.....after us, this time):
Verse 2 is same as verse 1

2nd Verse variation: TIME: 1:37
"A better place for..."                         "..this time"
G|--------------------------------------------|----------------------------|
D|--------------------------------------------|----------------------------|
A|-4---------6--6h8-6-------------------------|-4--------------------------|
E|---4h6-4--4---------------------------------|--4----4-9-4----------------|

CHORUS 2(the same):

After the 2nd chorus: TIME: 02:13
"Your higher power....in a dream of fantasy"
G|-------------------------------------------------------------------------|
D|-------------------------------------------------------------------------|
A|-6666-8-6666--6666-4-333-------------------------------------------------|
E|---------------------------------------------------------------------| X 2

SOLO: TIME: 2:37
G|-4-4h6-4--4-----------|-4-4h6-4--4-1--1/13-13--13-13-13-13--------------|
D|-----------6-6h8-6--6-|-------------------------------------------------|
A|----------------------|-------------------------------------------------|
E|----------------------|-------------------------------------------------|

(solo cont'd...) TIME: 2:49
G|-------------------------------------------------------------------------|
D|-------------------------------------------------------------------------|
A|-4-4h6-4--4--------------------------------------------------------------|
E|-----------6-6h8-6-6-1-11111-4-------------------------------------------|

Just when the solo ends: TIME: 3:01
G|-------------------------------------------------------------------------|
D|-------------------------------------------------------------------------|
A|-4--4---444444444444-----------------------------------------------------|
E|--4--4-------------------------------------------------------------------|

VERSE 3 (If we could all just find...be gone):
Verse 3 is sime as verse 1

Verse 3 variation: TIME: 3:26
"When will all this anger,hate..."    "...be gone"
G|--------------------------------|----------------------------------------|
D|--------------------------------|----------------------------------------|
A|--4--4-6------------------------|-4--------------------------------------|
E|-6------------------------------|--4---9999-8-6-44-(jump to chorus)------|

CHORUS 3(the same).


| /  slide up
| h  hammer-on
===============================================================================
Thats all folks! This song has MANY MANY MANY hammer-on's & blah blah blah....
But these are just the key notes and there are quite few variations in the 2nd & 3rd verse.
Listen to the CD and you'll get an idea about the timing. Listen to the Verse 3 variation
E|-9999-8-6-44 part carefully n tell me if its correct! N-joy muthatruckers!

            
            
Suggest correction
Creating personal tab
Creating personal tab
You can edit any tab online and save it as your Personal.

You can edit, replace or remove any tab part or add personal notes – all changes will be seen only by you.

Personal tabs can be accessed anytime from any device, even offline.
Learn more »
Give kudos to tab author, rate the tab!
1 2 3 4 5
comments
print report bad tab
guest
You may want to rate the tab now too:
select rating
Wanna post a correction for this tab? Suggest correction