Oops, an error
Loading. Please wait.

Gets Me Through tab

version 3
version 3
1,400 views 6 this week
4 commentsread comments
1 2 3 4 5
x 6
add to favorites
×
Save as Personal and add changes to this tab that will be seen only by you. Learn more ›
×
You can save this tab as Personal to edit and correct it or add notes. All changes will be seen only by you. Learn more »
launch autoscroll
font size
0
reset
how to read this tab
guitar tuner
backing track
0:00
0:00
edit
Autoscroll
slow
fast
+/-
esc
set tempo
stop
Ozzy Osbourne
Get's Me Through
Down to Earth
Bill M. (bilwylde@ceinetworks.com)
S.B.D.I.M.L.F.L.

This riff is basically used throughout the whole song
e|--------------------------------------------------------------------
B|--------------------------------------------------------------------
G|--------------------------------------------------------------------
D|----------------------------------------0h2-------------------------
A|2-2--2----2-2----2-2--2-2--2----2---0h2-----------------------------
E|0-0--0-2^-0-0-2^-0-0--0-0--0-2^-0-0---------------------------------

Bridge
e|----------------------------------------------|--LAST TIME
B|----------------------------------------------|------------
G|9----11-12--9---11-12------12--11-----12--11--|------------
D|-----------------------10----------10---------|------------
A|7----9--10--7---9--10------10--9------10--9---|------------
E|-----------------------8-----------8----------|8888--101010

Solo
e|--------------------------------------
B|--------------------------------------
G|9~~~~-11^(12)11^(12)-11^(12)r11--9~~~~
D|--------------------------------------
A|--------------------------------------
E|--------------------------------------

e|------------------------------------------------------------------
B|------------------------------------------------------------------
G|14^(16)r14-14--12--11-12-------12^(14)r12---12^(14)r12-12--11-12--
D|-------------------------10~------------------------------------10~
A|------------------------------------------------------------------
E|------------------------------------------------------------------
					TRILLS(USE SIDE OF PICK)
e|------------------------------------------------------------------------
B|------------------------------------------------------------------------
G|-----------------------------------9(11)-9(12)-9(14)---9(11)--9(16)-9(14)
D|12-10-9--12-10-9--------------------------------------------------------
A|-----------------12-10-9------------------------------------------------
E|-------------------------12-10-9----------------------------------------

e|----------------15^17-15^17-15-15^17-15-15^17-15-15^17--
B|15^17--15^17p12-------------------------------------------
G|-----------------------------------------------------
D|-----------------------------------------------------
A|---------------------------------------------------------
E|-------------------------------------------------------

e|12------12-------------------------------------------
B|--15^17----15-12------------------------------------------
G|-----------------14^16r14p12--------------------------------
D|-----------------------------14--------------------
A|-----------------------------------------------
E|-------------------------------------------------
			Hella fast
e|--------------------------------------------------------
B|--------------------------------------------------------
G|2^4(hold)--\------1519--1519--1519--1519--1519--1519----
D|----------------16----16----16----16----16----16----16--
A|--------------------------------------------------------
E|--------------------------------------------------------
			Unison bends
e|-----------------------------9--------------------
B|----------------5---4---3----12^------------------
G|2^4(hold)--7^9--7^9-6^8-5^7-----------------------
D|--------------------------------------------------
A|--------------------------------------------------
E|--------------------------------------------------

That's it except during the chorus in the last part he plays this once

e|-------------------------------------------------
B|-------------------------------------------------
G|4---7----------------------------------------------
D|4---7----------------------------------------------
A|2---5--------------------------------------------
E|-------------------------------------------------


            
            
Suggest correction
Creating personal tab
Creating personal tab
You can edit any tab online and save it as your Personal.

You can edit, replace or remove any tab part or add personal notes – all changes will be seen only by you.

Personal tabs can be accessed anytime from any device, even offline.
Learn more »
comments
print report bad tab
4 comments total. Showing first comments.
0 reply
tabman666 0 Nov 24, 2001 07:00 PM

what does the 2"^" mean....bend the string up?

0 reply
skaterpim9 145 Dec 14, 2001 07:00 PM

^ means bend the string probly up

0 reply
StOnE 10 Jan 05, 2002 07:00 PM

"^" means bend... if you bend it down you'll get the same result as if you bend it up

guest
Wanna post a correction for this tab? Suggest correction