Oops, an error
Loading. Please wait.

I Dont Wanna Stop tab

version 1
version 1

Whole song

Interactive

162,864 views 51 this week
49 commentsread comments
1 2 3 4 5
x 37
add to favorites
×
Save as Personal and add changes to this tab that will be seen only by you. Learn more ›
×
You can save this tab as Personal to edit and correct it or add notes. All changes will be seen only by you. Learn more »
launch autoscroll
font size
0
reset
how to read this tab
guitar tuner
backing track
0:00
0:00
edit
Autoscroll
slow
fast
+/-
esc
set tempo
stop
*Edit - 1/7/07 - lyrics updated!*

Ozzy Ozbourne - I Dont Wanna Stop

Please email any comments or questions to matt.8768@yahoo.co.uk


                   [ X2                                ]
D|-----------------|-----------------|-----------------|
A|-----------------|-----------------|-----------------|
F|-----------------|--7----5---------|--/10-----7------|
C|-----------------|--7----5---------|--/10-----7------|
G|--3--/5----------|--5----3---------|--/8------5------|
C|-----------------|-----------------|-----------------|
      
  [ X2                                                                    ]
D|-----------------|-----------------|-----------------|------------------|
A|-----------------|-----------------|-----------------|------------------|
F|-----------------|-----------------|-----------------|------------------|
C|-----------------|-----------------|-----------------|------------------|
G|-3-0-3-5-3-0-0-0-|-3-0-3-5-3-0-3~~-|-3-0-3-5-3-0-0-0-|-3-0-3-5-3-0------|
C|-3-0-3-5-3-0-0-0-|-3-0-3-5-3-0-----|-3-0-3-5-3-0-0-0-|-3-0-3-5-3-0-3△▽△|
               PMPM                                PMPM              AH
                                                                     Bend up twice 
                             or /10~~                                going back to 3
                                                                    
 [ X5
D|-----------------|-----------------|-----------------|-----------------|
A|-----------------|-----------------|-----------------|-----------------|
F|-----------------|-----------------|-----------------|-----------------|
C|-0----0----0-----|----0----5--5--5-|--3---3-----3----|--3-----/6-5-3---|
G|-0----0----0-----|----0----3--3--3-|------0-----0----|--0------------5-|
C|-0----0----0-----|----0------------|------0-----0----|--0--------------|

                   ]
D|-----------------|
A|-----------------|
F|-----------------|
C|-----------------|
G|--3--------------|
C|----6-5-3--------|

                   [ X2                                ]
D|-----------------|-----------------|-----------------|
A|-----------------|-----------------|-----------------|
F|-----------------|--7----5---------|--/10-----7------|
C|-----------------|--7----5---------|--/10-----7------|
G|--3--/5----------|--5----3---------|--/8------5------|
C|-----------------|-----------------|-----------------|
      
  [ X2                                                                   ]
D|-----------------|-----------------|-----------------|-----------------|
A|-----------------|-----------------|-----------------|-----------------|
F|-----------------|-----------------|-----------------|-----------------|
C|-----------------|-----------------|-----------------|-----------------|
G|-----------------|---------------3-|-----------------|---------------3-|
C|-5-3-0-3-5-3-0-0-|-0-5-3-0-5-3-0---|-5-3-0-3-5-3-0-0-|-0-5-3-0-5-3-0---|


D|-----------------|-----------------|-----------------|-----------------|
A|-----------------|-----------------|-----------------|-----------------|
F|-----------------|-----------------|-----------------|-----------------|
C|-----------------|-----------------|-----------------|-----------------|
G|-----------------|-----------------|-----------------|----------5--3---|
C|-3-----3--3---5--|-6---3--3--5--5--|--3---3---5--6---|--6--5--3--------|
                              ^

D|-----------------|-----------------|-----------------|-----------------|
A|-----------------|-----------------|-----------------|-----------------|
F|-----------------|-----------------|-----------------|-----------------|
C|-----------------|-----------------|-----------------|-----------------|
G|-----------------|-----------------|-----------------|-----------------|
C|--6--5--3--------|-----------------|-----------------|-----------------|

 [ X5
D|-----------------|-----------------|-----------------|-----------------|
A|-----------------|-----------------|-----------------|-----------------|
F|-----------------|-----------------|-----------------|-----------------|
C|-0----0----0-----|----0----5--5--5-|--3---3-----3----|--3-----/6-5-3---|
G|-0----0----0-----|----0----3--3--3-|------0-----0----|--0------------5-|
C|-0----0----0-----|----0------------|------0-----0----|--0--------------|

                   ]
D|-----------------|
A|-----------------|
F|-----------------|
C|-----------------|
G|--3--------------|
C|----6-5-3--------|

 [ X4                                                                  ]
D|-----------------|-----------------|-----------------|-----------------|
A|-----------------|-----------------|-----------------|-----------------|
F|-----------------|-----------------|-----------------|-----------------|
C|-----------------|-----------------|-----------------|-----------------|
G|-----------------|---------------3-|-----------------|---------------3-|
C|-5-3-0-3-5-3-0-0-|-0-5-3-0-5-3-0---|-5-3-0-3-5-3-0-0-|-0-5-3-0-5-3-0---|

 [ X4
D|-----------------|-----------------|-----------------|-----------------|
A|-----------------|-----------------|-----------------|-----------------|
F|-----------------|-----------------|-----------------|-----------------|
C|-----------------|-----------------|-----------------|-------------/6--|
G|-0-0-0-0-0-0-0-0-|-0-0-0-0-0-0-0-0-|-0-0-0-0-0-0-0-0-|-0-0-0-0-0-0-----|
C|-0-0-0-0-0-0-0-0-|-0-0-0-0-0-0-0-0-|-0-0-0-0-0-0-0-0-|-0-0-0-0-0-0-----|

                   ]
D|-----------------|
A|-----------------|
F|-----------------|
C|-5--3------------|
G|------5--3-------|
C|-----------6-5-3-|

The next bit is very fast!
   
     ^ 
D|--13-12-10-8-12--|-10-8------------|-----------------|-----------------|
A|-----------------|------13-11-10---|-13-11-10--------|-------------10--|
F|-----------------|-----------------|----------11-12--|-10----10-12-----|
C|-----------------|-----------------|-----------------|----14-----------|
G|-----------------|-----------------|-----------------|-----------------|
C|-----------------|-----------------|-----------------|-----------------|


D|-----------------|-----------------|-12-------12-13--|-15-13-12-13-12--|
A|-11-10-11-13-10--|-11-13-15-13-15--|----13-15--------|-----------------|
F|-----------------|-----------------|-----------------|-----------------|
C|-----------------|-----------------|-----------------|-----------------|
G|-----------------|-----------------|-----------------|-----------------|
C|-----------------|-----------------|-----------------|-----------------|

           ^                                        ^              ^
D|-13-----13-------|-----------------|-------10--------|-10-----------10-|
A|-----------------|-/10-13-10-13-10-|-13-10----10-13--|----13-10--------|
F|-----------------|-----------------|-----------------|----------12-----|
C|----0-0----------|-----------------|-----------------|-----------------|
G|-----------------|-----------------|-----------------|-----------------|
C|-----------------|-----------------|-----------------|-----------------|

                     ^
D|-------10--------|-----10-------10-|-----------------|-10-13-15-13-15--|
A|-13-10----13-10--|--------13-10----|-13-10-15-15-15--|-----------------|
F|-----------------|-12--------------|-----------------|-----------------|
C|-----------------|-----------------|-----------------|-----------------|
G|-----------------|-----------------|-----------------|-----------------|
C|-----------------|-----------------|-----------------|-----------------|


D|-13-10-13-10-----|-10-13-12-13--12-|-10-12-10----10--|----10-12-10-10--|
A|-------------13--|-----------------|----------13-----|-13--------------|
F|-----------------|-----------------|-----------------|-----------------|
C|-----------------|-----------------|-----------------|-----------------|
G|-----------------|-----------------|-----------------|-----------------|
C|-----------------|-----------------|-----------------|-----------------|

       ^              ^            ^             ^         ^      ^  ^   
D|-10-----10-------|-----10----------|-10--------------|-----------------|
A|----13-----13-10-|--------13-10----|----13-10-12--13-|-----------------|
F|-----------------|-12-----------12-|----------12-----|--12--10-16-12---|
C|-----------------|-----------------|-----------------|-----------------|
G|-----------------|-----------------|-----------------|-----------------|
C|-----------------|-----------------|-----------------|-----------------|

       ^    ^         ^          ^            ^           ^         ^     
D|-----------------|-----------------|-----------------|-----------------|
A|-10-17---12--10--|-16---12-10-17---|-12-10-16-12-10--|-17--12-10-16----|
F|-----------------|-----------------|-----------------|-----------------|
C|-----------------|-----------------|-----------------|-----------------|
G|-----------------|-----------------|-----------------|-----------------|
C|-----------------|-----------------|-----------------|-----------------|

       ^  ^     ^     ^     ^  ^        ^  ^  ^
D|-----------------|-----------------|-----------------|-15-13-\3/15--13-|
A|-10-12-17-10-12--|-17-10-12-16-10--|-12-16-12--------|-----------------|
F|-----------------|-----------------|-----------------|-----------------|
C|-----------------|-----------------|-----------------|-----------------|
G|-----------------|-----------------|-----------------|-----------------|
C|-----------------|-----------------|-----------------|-----------------|


D|-13-15-13--15-13-|-15-12-13-15-12--|-13-15-13-10-13--|-10----10--------|
A|-----------------|-----------------|-----------------|----13----10-13--|
F|-----------------|-----------------|-----------------|-----------------|
C|-----------------|-----------------|-----------------|-----------------|
G|-----------------|-----------------|-----------------|-----------------|
C|-----------------|-----------------|-----------------|-----------------|

                             ^                ^
D|-----------------|-----------------|-18--------------|-----------------|
A|-10----10--------|--------12---\---|-18----16--------|-----------------|
F|----12----12-13--|-10-----12---\---|-----------------|-----------------|
C|-----------------|----12-----------|-----------------|-----------------|
G|-----------------|-----------------|-----------------|-----------------|
C|-----------------|-----------------|-----------------|-----------------|

  [ X4                                                                  ]
D|-----------------|-----------------|-----------------|-----------------|
A|-----------------|-----------------|-----------------|-----------------|
F|-----------------|-----------------|-----------------|-----------------|
C|-----------------|-----------------|-----------------|-----------------|
G|-----------------|---------------3-|-----------------|---------------3-|
C|-5-3-0-3-5-3-0-0-|-0-5-3-0-5-3-0---|-5-3-0-3-5-3-0-0-|-0-5-3-0-5-3-0---|


Lyrics:

I don't know what they're talking about
I'm making my own decisions
This thing that I found
Ain't gonna bring me down
I'm like a junkie without an addiction

Mama don't cry
I just wanna stay high
Like playing with danger or fear
Everybody's walking but nobody's talking
It looks a lot better from here

All my life I've been over the top
I don't know what I'm doing,
All I know is I don't wanna stop
All fired up, I'm gonna go till I drop
You're either in or in the way, don't make me,
I don't wanna stop

Why don't they ever listen to me?
Is this a one-way conversation?
Nothing they say is gonna set me free
Don't need to make no mental masterbation

Too many religions for only one god
I don't need another savior
Don't try to change my mind
You know I'm one of a kind
Ain't gonna change my bad behavior

All my life I've been over the top
[I Don't Wanna Stop lyrics on http://www.metrolyrics.com]

I don't know what I'm doing,
All I know is I don't wanna stop
All fired up, I'm gonna go till I drop
You're either in or in the way, don't make me,
I don't wanna stop

All my life I've been over the top
I don't know what I'm doing,
All I know is I don't wanna stop
All fired up, I'm gonna go till I drop
You're either in or in the way, don't make me, 
I don't wanna stop

I don't wanna stop
I don't wanna stop
I don't wanna stop
I don't wanna stop

All my life I've been over the top
I don't know what I'm doing,
All I know is I don't wanna stop
All fired up, I'm gonna go till I drop
You're either in or in the way, don't make me,
I don't wanna stop

All my life I've been over the top
I don't know what I'm doing,
All I know is I don't wanna stop
All fired up, I'm gonna go till I drop
You're either in or in the way, don't make me,
I don't wanna stop 

****************************************************

^   = Bend up
[X2 = Play up to the ] the stated number of times
/   = Slide up
\   = Slide down
~   = Vibrato
AH  = Artificial Harmonic
PM  = Palm mute

****************************************************

            
            
Suggest correction
Creating personal tab
Creating personal tab
You can edit any tab online and save it as your Personal.

You can edit, replace or remove any tab part or add personal notes – all changes will be seen only by you.

Personal tabs can be accessed anytime from any device, even offline.
Learn more »
comments
print report bad tab
49 comments total. Showing first comments.
+1 reply
OzzyOwnz 10 May 24, 2007 06:00 PM

Great tab, Thx

+5 reply
death-to-punk 30 May 25, 2007 03:22 PM

i just want to point out that its not need no reservation its dont need no mental masterbation

0 reply
ShrimpthePimp 785 May 25, 2007 09:12 PM

yeah,
thanks for the great tab. :)

guest
You may want to rate the tab now too:
select rating
Wanna post a correction for this tab? Suggest correction