Oops, an error
Loading. Please wait.

I Just Want You Tab

version 1
version 1

Whole song

Interactive

32,529 views 51 this week
4 commentsread comments
1 2 3 4 5
x 13
add to favorites
launch autoscroll
font size
0
reset
how to read this tab
guitar tuner
×
Best way to learn
"I Just Want You"
Autoscroll
slow
fast
+/-
esc
set tempo
stop
I Just Want You
Ozzy - Ozzmosis

e|----------------|---0-------------|
B|--3-----2-------|-----0---------3-|
G|----4-----2-----|-------0-----4---| This is the main
D|------4-----2---|-----------4-----| progression, just
A|2---------------|---------2-------| play it over and over
E|----------------|-0---------------|

 "I don't ask much, i just want you..."
e|-0---------|-------------------------------------------|
B|-0----0-3--|-------------------------------------------|
G|-0---------|-4--4----2-2--2----------------------------|
D|-2---------|-4--4----2-2--2-----2---2------------------|
A|-2---------|-2--2----0-0--0-----2---2-----4^---~~~~-0--|
E|-0---------|-------3^-------2^--0---0---0--------------|

 "I'm sick and tired of being sick and .."
e|---0---0---0---0-|---0---0---0---0-|---0---0---0---0-|---0---0---0---0-|
B|---0---0---0---0-|---0---0---0---0-|---0---0---0---0-|---0---0---0---0-|
G|-------------2---|-4---6---7---9---|-11--9---7---6---|-7---6---4---2---|
D|-2---4---5-------|-----------------|-----------------|-----------------|
A|-----------------|-----------------|-----------------|-----------------|
E|-----------------|-----------------|-----------------|-----------------|

 [Solo]
e|---------------------|------------------------------|------|
B|---------------------|---10----15/19^-19-17---------|------|
G|------------------7~-|/11---/16-------------19^--16-|------|
D|-------------7/9~----|------------------------------|------|
A|------5-7~/9---------|------------------------------|------|
E|-5h7~----------------|------------------------------|------|

e|-------------------------|--------------------------------------|
B|-17^-17^-17^-17^--15-----|-17^-^-^-^-^-^17-15----17-15-17^-15---|
G|---------------------16~-|--------------------16-------------16-|
D|-------------------------|--------------------------------------|
A|-------------------------|--------------------------------------|
E|-------------------------|--------------------------------------|

e|--------------------------|-------7----7-------------|-----|
B|--------------------------|----10--------------------|-----|
G|-------7-------9^-^9p7-9^-|-9^-----9^----9~-7--9-7---|-----|
D|-----7----7-9~------------|------------------------9-|-----|
A|-7h9----------------------|--------------------------|-----|
E|--------------------------|--------------------------|-----|

e|-10^-7-----7----------------|------------------------------|
B|----------------------------|------------------------------|
G|-------10----9~--7-9-9p7----|------------------------------|
D|-------------------------9~-|------------------------------|
A|----------------------------|------------------------------|
E|----------------------------|------------------------------|

e|------7------7------7------7------7----|-7-7-7------7------7------7------7---|
B|-7-10---7-10---7-10---7-10---7-10---10-|-------7-10---7-10---7-10---7-10---7-|
G|---------------------------------------|-------------------------------------|
D|---------------------------------------|-------------------------------------|
A|---------------------------------------|-------------------------------------|
E|---------------------------------------|-------------------------------------|
|                                       | \\\\\\
|---------------------------------------|---------------------------------------\\\\\|
|---------------------------------------|--------------------------------------------|
|---------------------------------------|--------------------------------------------|
|---------3/4--4-4--4/5--5-5--5/7--7-7--|-7/9-9-9-9/11-11-11-11/12-12-12-12/14-14-14-|
|---------xh---x-x--xh---x-x--xh---x-x--|-xh--x-x-xh---x--x---xh----x--x--xh----x--x-|
|-0--0-0--1/2--2-2--2/3--3-3--3/5--5-5--|-5/7-7-7-7/9--9--9---9/10-10-10-10/12-12-12-|

e|-10-7----7-------------------------------------------|
B|------10---10-7-10-7----7----------------------------|
G|---------------------10---10-7-9-7---7---------------|
D|-----------------------------------9---9-7-9-7---7---|
A|-----------------------------------------------9-----|
E|-----------------------------------------------------|
|                                                     |
|-----------------------------------------------------|
|-----------------------------------------------------|
|-----------------------------------------------------|
|-14/16--16-16--16\14--14-14--14\12--12-12\11-11-11---|
|--xh-----x--x---xp-----x--x---xp-----x--x-x--x--x----|
|-12/14--14-14--14\12--12-12--12\10--10-10\9--9--9----|

e|-10-7----7-------------------------------------------------|
B|------10---10-7-10-7----7----------------------------------|
G|---------------------10---10-7-9-7---7---------------------|
D|-----------------------------------9---9-7-9-7---7---------|
A|-----------------------------------------------9-----------|
E|-----------------------------------------------------------|
|                                                           |
|-----------------------------------------------------------|
|-----------------------------------------------------------|
|-----------------------------------------------------------|
|--11\9--9-9--9\7--7-7--7/9--9-9--9-\-8-/-9-----------------|
|-----------------------------------------------------------|
|---9\7--7-7--7\5--5-5--5/7--7-7--7-\-6-/-7-----------------|

e|---------------------|--------------------------|-------------------------------|
B|---------------------|-10^~~-12^~~-13^~~-15^~~--|-17^~~-17-15-------------------|
G|-2^~~-4^~~-5^~~-7^~~-|--------------------------|-------------14/16-------------|
D|---------------------|--------------------------|-------------------14-12-------|
A|---------------------|--------------------------|-------------------------14~~~-|
E|---------------------|--------------------------|-------------------------------|

 "There are no unachievable goals..."
e|------------------|---4---------------|
B|---7------6-------|-----4---------7---|
G|-----8------6-----|-------4-----8-----|
D|-------8------6---|-----------8-------|
A|-6----------------|---------6---------|
E|------------------|-4-----------------|

e|---------------------4--------------------|
B|-----6h7-----7p6-------4------------------|
G|-----------------6-------4----------------|
D|---8-------6---------------3/4----3~~~----|
A|-6-------4-----------------xh-----x-------|
E|-------------------4-------1/2----1-------|

************************************

| ~  Vibrato
| /  Slide up
| h  Hammer-on
| p  Pull-off
| \  Slide down
| x  Dead note

************************************
Suggest correction
comments
print report bad tab
4 comments total. Showing first comments.
0 reply
SkaterD2002 600 Sep 06, 2003 08:00 PM

Hey man. Good job on this tab

0 reply
SkaterD2002 600 Sep 06, 2003 08:00 PM

Hey man. Good job on this tab

0 reply
Rhoadswuzawsome 71 Jan 13, 2009 05:58 PM

on the intro, you can play the sync part like this:

|-0----0----0----0---|
|---0----0----0----0-|
|12---12---12---12---|
|--------------------|
|--------------------|
|--------------------|

|-0----0----0----0---|
|---0----0----0----0-|
|11---11---11---11---|
|--------------------|
|--------------------|
|--------------------|

back and forth until it gets to the guitar part

guest
You may want to rate the tab now too:
select rating
Wanna post a correction for this tab? Suggest correction