Oops, an error
Loading. Please wait.

Killer Of Giants tab

version 1
version 1

Whole song

Interactive

40,228 views 87 this week
2 commentsread comments
1 2 3 4 5
x 15
add to favorites
×
Save as Personal and add changes to this tab that will be seen only by you. Learn more ›
×
You can save this tab as Personal to edit and correct it or add notes. All changes will be seen only by you. Learn more »
launch autoscroll
font size
0
reset
how to read this tab
guitar tuner
backing track
0:00
0:00
edit
Autoscroll
slow
fast
+/-
esc
set tempo
stop
Author
Unregistered
First part played with delay. Play so that the delay notes keep time with the actual notes

                        (let ring...)
e|-------------------------0-----|
B|---------5-------------0-------|
G|-------4---4---------5---------|
D|-----2-------2-----5-----------|
A|---2-----------2-3-------------|
E|-0-----------------------------|(x2)

Delay off for the next part:
e|-------------------------0-------------------------------0-------|
B|---------5-------------0---0-------------5-------------3---3-----|
G|-------4---4---------5-------5---------4---4---------3-------3---|
D|-----2-------2-----5-----------5-----2-------2-----3-----------3-|
A|---2-----------2-3-----------------2-----------2-1---------------|
E|-0-------------------------------0-------------------------------|
                                                                   |(x2)
                                                                   |
e|-------------------------0---------------0---------------0-------|
B|---------5-------------0---0---------------0---------------0-----|
G|-------4---4---------5-------5---------4-----4---------2-----2---|
D|-----2-------2-----5-----------5-----5---------5-----3---------3-|
A|---2-----------2-3-----------------5---------------3-------------|
E|-0-------------------------------3---------------1---------------|


e|---------3---------------3---------------3-------6-----5-----3---|
B|-------3---3-----------3---3-----------3---3-------3-----3-----3-|
G|-----5-------5-------5-------5-------3-------3-------3-----3-----|
D|---5-----------5---5-----------5---3-----------3-----------------|
A|-3---------------3---------------3-------------------------------|
E|-----------------------------------------------------------------|(x2)


e|-5-------5---------------5---------------5-------8-----7-----5---|
B|-------5---5-----------5---5-----------5---5-------5-----5-----5-|
G|-----7-------7-------7-------7-------5-------5-------5-----5-----|
D|---7-----------7---7-----------7---5-----------5-----------------|
A|-5---------------5---------------5-------------------------------|
E|-----------------------------------------------------------------|

                                                  {strum chord from bottom to
e|---------5---------------5---------------5-------8----|  top and let ring...}
B|-------5---5-----------5---5-----------5---5-----5----|
G|-----7-------7-------7-------7-------7-------7---5----|
D|---7-----------7---7-----------7---7-----------7-5----|
A|-5---------------5---------------5---------------5----|
E|------------------------------------------------------|


{--4x--}{--4x--------------------------------------------------------------------|

e|-0-------0-------     0---------------0---------------0-------------------0----|
B|---0-------0----- <   --0-----------0---0-----------0---0---------------0---0--|
G|-----6-------5---(x2) ----2-------2-------2-------2-------2-----------2-------2|
D|-------6-------5- <   ------2---2-----------2---2-----------2-------2----------|
A|-----------------     --------0---------------0---------------2-2-2------------|
E|-----------------     ---------------------------------------------------------|


  If
  none of us            believes in war                        then
e|-----------------------------------------4-----------------------|
B|---------2------7-------5---------5--------5-----5-4-----4-5-----|
G|-----------2------4-------6---6------6-------6-------4-------6---|
D|------4------4------4-------7----------6-------6-------4-------6-|
A|----4-----------------------------4--------------4-6-----6-4-----|
E|-2--------------4-------5----------------------------------------|


  can you tell me what the weapons for...
e|-------------------------------------------------------------------|
B|----------9-------10-----12-10-9-----7-----7-9-----9-7-----7-9-----|
G|--------9---9---9----9-----------9-----7-------9-------7-------9---|
D|------9-------9--------9-----------9-----7-------9-------7-------9-|
A|-5/7---------------------------------0-------7-------0-------7-----|
E|-------------------------------------------------------------------|

  Listen to me..............
e|-------------------------------------------------------------|
B|-2-----2-0-------5-------3-----3-2-----2--------5------3-----|
G|---0-------0---0---0---0---0-------4------4---4---2------4---|
D|-----0-------0-------0-------0-------4------4-------4------4-|
A|---------------------------------2--------------2------2-----|
E|-3---------------3-------------------------------------------|


e|---------------------------------------------------------------|
B|-2-----2-0-------5-------3-----------2---2-----------2---2-----|
G|---0-------0---0---0---0---0---0-------4---4---4-------4---4---|
D|-----0-------0-------0-------0-----4---------4-----4---------4-|
A|---------------------------------2-----------------------------|
E|-3---------------3---------------------------------------------|

e|---------------------------------------------------------------|
B|-2-----2-0-------5-------3-----------2---2-----------2---2-----|
G|---0-------0---0---0---0---0---0-------4---4---4-------4---4---|
D|-----0-------0-------0-------0-----4---------4-----4---------4-|
A|---------------------------------2-----------------------------|
E|-3---------------3---------------------------------------------|


e|-------------------------------------------------0---------------|
B|-2-----2-0-------5-------3-------2-----2-0---------0-----3-------|
G|---0-------0---0---0---0---0---0---2-------2---2-----2-----2---2-|
D|-----0-------0-------0-------0-------2-------2---------2-----2---|
A|---------------------------------0-------------------------------|
E|-3---------------3-----------------------------------------------|

                                                {strum from bottom to top
e|-----------------------------------------------2-|  and let chord ring}
B|-2-----2-0-------5-------3-----------2---2-----2-|
G|---0-------0---0---0---0---0---0-------4---4---4-|
D|-----0-------0-------0-------0-----4---------4-4-|
A|---------------------------------2-------------2-|
E|-3---------------3-------------------------------|


  oh yeah here's the end thing he does:
e|---------0-5/7-|
B|-----0h1-------|
G|---------------|
D|---2-----------|
A|-0-------------|
E|---------------|



************************************

| x  Dead note
| /  Slide up
| h  Hammer-on

************************************

            
            
Suggest correction
Creating personal tab
Creating personal tab
You can edit any tab online and save it as your Personal.

You can edit, replace or remove any tab part or add personal notes – all changes will be seen only by you.

Personal tabs can be accessed anytime from any device, even offline.
Learn more »
comments
print report bad tab
2 comments total.
+4 reply
BlackOzz 10 Jan 10, 2007 12:24 AM

hmm.... you get a better sound if you play the first chord like this.
----------0--------
------------0------
--------9-----9----
------9---------9--
----7--------------
--0----------------
but thats only what I think...

0 reply
BlackOzz 10 Jan 10, 2007 12:27 AM

where's the solo by the way.?

guest
Wanna post a correction for this tab? Suggest correction