Oops, an error
Loading. Please wait.

Mr Crowley Tab

version 1
version 1
671,928 views 507 this week
71 commentsread comments
1 2 3 4 5
excellent!
x 140
add to favorites
launch autoscroll
font size
0
reset
how to read this tab
guitar tuner
Tab Pro tools
  • play this tab
  • loop segment
  • change instrument
  • show fretboard
  • metronome
×
Best way to learn
"Mr Crowley"
Autoscroll
slow
fast
+/-
esc
set tempo
stop
Contributor
SONG: Mr. Crowley
ARTIST: Ozzy Osbourne
TITLE:  Blizzard of OZZ
WRITTEN BY: Ozzy Osbourne, Randy Rhoads and Bob Daisley
TRANSCRIBED BY: Bryan Mier



  (Synth. arr. for gtr.)
  Dm                Am                  F               C
e|-----------------|-------------------|---------------|---------------------|
B|-----------------|-------------------|---------------|---------------------|
G|-----------------|-2------------2--0-|-----0---2---4-|-5---0------5---4----|
D|--0---2---3---5--|------2------------|-3-------------|---------------------|
A|-----------------|----------0--------|---------------|---------3-----------|
E|-----------------|-------------------|---------------|---------------------|

  Am              Em          Am A#  F    G  F  E  F  A
e|---------------|-----------|-5--6--1-|--3--1--0--1-|-----------------------|
B|-------------3-|-5---------|-5--6--1-|--3--1--0--1-|-----------------------|
G|-2---4---5-----|-----4-----|-5--7--2-|--0--2--1--2-|-2---------------------|
D|---------------|---------2-|-7--8--3-|--0--3--2--3-|----------3v(2)~-------|
A|---------------|-----------|-7--8----|--------2----|-----------------------|
E|---------------|-----------|-5--6--1-|--3--1--0--1-|-----------------------|

[Verse 1]

e|-----------|----------|---------------------|------------|----------|-------|
B|-----------|----------|---------------------|------------|----------|-------|
G|-7---------|-7--------|-3--X-3~-------------|-3--X-3~----|-7--------|-7-----|
D|-7---------|-7--------|-3--X-3~-------------|-3--X-3~----|-7--------|-7-----|
A|-5---0-----|-5--------|-1--X-1~-1-1-3-1-0-0-|-1--X-1~-1/-|-5---0----|-5-----|
E|--------1--|-----18\--|---------------------|------------|--------1-|----22\|

                                                   [- Fill 1 --]
e|---------------------|-----------|---------------|-----------|--------------|
B|---------------------|-----------|---------------|------5----|--------------|
G|-3--X-3~-------------|-3--X-3~-3-|-5--3--5--3--5-|------5--7-|-7--5--7~-----|
D|-3--X-3~-------------|-3--X-3~-3-|-5--3--5--3--5-|------5--7-|-7--5--7~-----|
A|-1--X-1~-1-1-3-1-0-0-|-1--X-1~-1-|-3--3--3-----3-|-5h7--5--5-|-5--5--5~-----|
E|---------------------|-----------|---------------|-----------|--------------|

[-- Fill 2 --------------------------------------------------------------------|
|--------------------|-------------|------------|-------------|----------------|
|-----------X--------|-------------|------------|-------------|----------------|
|-----5h7p5-7^(9)-5~-|-5--X--5---5-|-----5--X-5-|-3--3--3-----|----------------|
|-----5h7p5----------|-5--X--5---5-|-----5--X-5-|-3--3--3-----|----------------|
|-5h7----------------|-3--X--3-0-3-|-0-1-3--X-3-|-1--1--1-1p0-|----------------|
|--------------------|-------------|------------|-------------|-17\------------|

[Verse 2]

Repeat VERSE 1, but replace FILL 1 with FILL 3 and FILL 2 with FILL 4:

[-- Fill 3 -------] [-- Fill 4 --------------------|
|-----------------| |------------------------------|
|-----------------| |-3h4p3--3---------------------|
|-----------------| |------5--5-3h5p3\2--2---------|
|---------------7-| |------------------5--5-3-2----|
|-5h7p5h7p5h7p5-5-| |--------------------------5---|
|-----------------| |------------------------------|

[Solo]

e|----------10----------------10----------------10----------------10-------10--|
B|--------10---13p10--------10---13p10--------10---13p10--------10---13p10-----|
G|-12^(14)-----------12^(14)-----------12^(14)-----------12^(14)---------------|
D|-----------------------------------------------------------------------------|
A|-----------------------------------------------------------------------------|
E|-----------------------------------------------------------------------------|

e|-13p10----10-----------------------------------------------------------------|
B|-------13----13-10-13p10-----------------------------------------------------|
G|-------------------------12-10-12p10----10--------------10-10-12-------------|
D|-------------------------------------12---12-10-12p10h12---------------------|
A|-----------------------------------------------------------------------------|
E|-----------------------------------------------------------------------------|

e|--------------------------10-13p12-10-15p13p12-16p15p13-18p16p15/20-20p18p17-|
B|------------13-13-13p10-13---------------------------------------------------|
G|-12p10-12/14-----------------------------------------------------------------|
D|-----------------------------------------------------------------------------|
A|-----------------------------------------------------------------------------|
E|-----------------------------------------------------------------------------|

e|-20^(22)---20^(22)v(18)---20~-----20p17h18-20p17h18p17--|
B|--------------------------------------------------------|
G|--------------------------------------------------------|
D|--------------------------------------------------------|
A|--------------------------------------------------------|
E|--------------------------------------------------------|

e|-17h18p17--17------17h18p17--17-------------------------------------------|
B|---------20--18-20---------20--20p17h18p17---17---------------------------|
G|-------------------------------------------19--19p17---17-----------------|
D|----------------------------------------------------20---20p19p17---17----|
A|-----------------------------------------------------------------20-------|
E|--------------------------------------------------------------------------|

e|-------------------------20^(22)--|
B|----------------------------------|
G|---------------------X------------|
D|----------17~--------X------------|
A|-19~----------19~----X------------|
E|----------------------------------|

e|-20p17h20p17h18p17-18p17----17-------------------------|
B|-------------------------20---20p17-18p17h18p17h18p17--|
G|-------------------------------------------------------|
D|-------------------------------------------------------|
A|-------------------------------------------------------|
E|-------------------------------------------------------|

e|------------20----20~\--|
B|-20^(22)----------20~\--|
G|------------------------|
D|------------------------|
A|------------------------|
E|------------------------|

e|-13p10--10-----13p10--10-----13p10-10-10-----13p10-10-10-------|
B|------13--13p10-----13--13p10-----------13-10-----------13p10--|
G|---------------------------------------------------------------|
D|---------------------------------------------------------------|
A|---------------------------------------------------------------|
E|---------------------------------------------------------------|

e|-13p10--10-----13-10--10-----13p10--10-----13p10--10-------|
B|------13--13p10-----13--13p10-----13--13p10-----13--13p10--|
G|-----------------------------------------------------------|
D|-----------------------------------------------------------|
A|-----------------------------------------------------------|
E|-----------------------------------------------------------|

e|-13p10--10------------------------------------------5--|
B|------13--13p10-11p10--10-----------------------5h6----|
G|---------------------12--12p9-10-9\7-9-7\5-7p5---------|
D|----------------------------------------------7--------|
A|-------------------------------------------------------|
E|-------------------------------------------------------|

e|---------------8-----------|-------------------------------|
B|-8^(9)^(10)~~~~~~~~~v(9)---|-6------------6p5--------------|
G|---------------------------|---7~--7~--7p5---7-5-----------|
D|---------------------------|---------------------8p7p5-----|
A|---------------------------|---------------------------8---|
E|---------------------------|-------------------------------|

e|---------------------------|-------------------------------|--------|
B|---------------------------|-------------------------------|--------|
G|---------------------------|-------------------------------|--------|
D|-5-----------5-------------|-------------------------------|--------|
A|---8p7p5-7h8---8--7~--5~---|-4~---5~---7~---12h13p12h13p12-|-20/0---|
E|---------------------------|-------------------------------|--------|

[Verse 3]

Repeat VERSE 2, but replace FILL 4 with FILL 5:

[-- Fill 5 ------------------------------------|
|----------10----------------------------------|
|-13^(15)~---13-11-10h12p10--10----------------|
|--------------------------13--13p10h13p10-----|
|-----------------------------------------12---|
|----------------------------------------------|
|----------------------------------------------|


[Interlude]

|--1--------1p0-----|-----5--3----|-------------------|-----------------|
|:-3----3-------3p1-|-----6--5--5-|-------------------|----8--6---------|
|--2--2---2---------|-3-----------|-5----5h7-9p7------|----------7------|
|--0----------------|-3-----------|-5--5---------10p8-|-7-----------7---|
|:------------------|-------------|-------------------|-----------------|
|-------------------|-------------|-------------------|-----------------|
                                            [--- 1 ---][--- 2 ----------|
|-----------------|------------|------------|---------|-------0---------|
|-3---------------|----6p5h6-5-|-2--3--5--6-|-5--3--2~|-5--3--2---------|
|-3---3h5-7-5-3-2-|-0--------0-|------------|---------|-------2---------|
|-3-3-------------|------------|------------|---------|-------2---------|
|-----------------|------------|------------|---------|-------0---------|
|-----------------|------------|------------|---------|-----------------|

e|-17p13-------------------18p13----------------------------|
B|-------15-(repeat 4 X)--------15--(repeat 4x)-------------|
G|----------------------------------------------------------|
D|----------------------------------------------------------|
A|----------------------------------------------------------|
E|----------------------------------------------------------|

e|-15p12------------------17p13-----------------------------|
B|-------13-(repeat 4x)---------13-(repeat 4x)--------------|
G|----------------------------------------------------------|
D|----------------------------------------------------------|
A|----------------------------------------------------------|
E|----------------------------------------------------------|

e|----------------------------------------------------------|
B|-15h16p15h16-16/18\16/18-18---16---15---16----------------|
G|-15h17p15h17-17/19\17/19-19---17---15---17----------------|
D|----------------------------------------------------------|
A|----------------------------------------------------------|
E|----------------------------------------------------------|

e|-15---12---------12----9----10----12----13---12-----------|
B|-/-----/----11----/----/-----/-----/-----/----------------|
G|-/-----/-----/----/----/-----/-----/-----/----------------|
D|-/-----/-----/----/----/-----/-----/-----/----------------|
A|-------------/--------------------------------------------|
E|----------------------------------------------------------|

e|10h12p10h12p10h12-12~~~-9-10-9-10-9-10-----------------------------------------|
B|--------------------------------------10-11-10-11-10-11------------------------|
G|----------------------------------------------------9-10-9-10-9-10-6-7-6-7-6-7-|
D|-------------------------------------------------------------------------------|
A|-------------------------------------------------------------------------------|
E|-------------------------------------------------------------------------------|

e|---------9h10-12-10-12^~~~~~-----5h6p5--5-----------------------|
B|-----9h10-----------------------------8---8-6p5-6p5-7-5---------|
G|-9h10---------------------------------------------------8p7-5---|
D|--------------------------------------------------------------8-|
A|----------------------------------------------------------------|
E|----------------------------------------------------------------|

e|----------------------------------------------------------5-6-8-6-5---------|
B|----------------------------------------------------5-6-8-----------8-------|
G|-----------------------------------------2-3-5-3-5-7------------------------|
D|-5---------5-7p5-------------------2-3-5------------------------------------|
A|---8p7p5-8-------8-\----------1-3-5-----------------------------------------|
E|-------------------------1-3-5----------------------------------------------|

e|-5-------------5------------------------------------------------------------|
B|---8-6p5-6p5-8---8-----6--5-----2-3-2-3-2-3/3-5-3-5-3-5/6-5-6-5-6/8-6-8-6-8-|
G|----------------------------------------------------------------------------|
D|----------------------------------------------------------------------------|
A|----------------------------------------------------------------------------|
E|----------------------------------------------------------------------------|

e|-----------------------------------------------------------|
B|/10-8-10-8-10/11-10-11-10-11-10-11/13-11-13-11-13-11-15^---|
G|-----------------------------------------------------------|
D|-----------------------------------------------------------|
A|-----------------------------------------------------------|
E|-----------------------------------------------------------|

e|-------------------------------------17-18-17--17-------------17---------20--|
B|-17h18----------17-18-17-18-------18---------20--20-18-17-18-20--20-18-17----|
G|-------19~~~~---------------19~~~~-------------------------------------------|
D|-----------------------------------------------------------------------------|
A|-----------------------------------------------------------------------------|
E|-----------------------------------------------------------------------------|

e|-18--17-20-18-17-20--18152018141916\15131814131613121512\11101411-9--|
B|---------------------------------------------------------------------|
G|---------------------------------------------------------------------|
D|---------------------------------------------------------------------|
A|---------------------------------------------------------------------|
E|---------------------------------------------------------------------|

e|-13-10\5h6p5---5------------------------------------------|
B|-------------8---8-6-5---5--------------------------------|
G|-----------------------7---7-5---5------------------------|
D|-------------------------------8---8-7-8-7---------5------|
A|-------------------------------------------7/8-7h8--------|
E|----------------------------------------------------------|

e|----------------------------------------------------------|
B|----------------------------------------------------------|
G|----------------------------------------------------------|
D|-7--5------------------------------------3----------------|
A|-------8--7---5--3--------3/5------5-3-5---5-3-5----------|
E|--------------------5-3-1---------------------------------|

e|----------------------------------------------------------|
B|-------------------------------------6p5------------------|
G|---------------------------------5h7----7p5-7~~~~---------|
D|-6-3-5-3----------------3--5-5/7--------------------------|
A|---------5-3---5--3--5------------------------------------|
E|----------------------------------------------------------|

e|-5h6p5---5------------------------|
B|-------8---8-6-5-6-5--------------|
G|---------------------7-5-7-5------|
D|-----------------------------8-7--|
A|----------------------------------|
E|----------------------------------|



************************************

| h  Hammer-on
| p  Pull-off
| /  Slide up
| \  Slide down
| ~  Vibrato
| X  Dead note   
| ^  Bend Up
| v  Bend Down
| =  Let ring

************************************
comments
print report bad tab
71 comments total. Showing first comments. show 2 bad comments
0 reply
CrAzY BrYn wrote on April 17 2003, 12:00 am

On the outro after the 15,12,11...there is a little prblem that I made after that riff were it goes 10-11-10-11 under the last ten there is a 9 under it foreget the9 it starts after the 11, ok.

I want to post or [tab]
guest
You may want to rate the tab now too:
select rating
Please do not post tabs as comments. Select "correction" instead!