Oops, an error
Loading. Please wait.

Nightmare Tab

version 1
version 1

Whole song

523 views 3 this week
no commentswrite comment
1 2 3 4 5
please rate
add to favorites
launch autoscroll
font size
0
reset
how to read this tab
guitar tuner
Tab Pro tools
  • play this tab
  • loop segment
  • change instrument
  • show fretboard
  • metronome
×
Best way to learn
"Nightmare"
Autoscroll
slow
fast
+/-
esc
set tempo
stop
Contributor
Difficulty
intermediate
Song: Nightmare
Artist: Ozzy Osbourne
Album: Black Rain (Tour Edition Bonus CD)
Composed by Ozzy Osbourne, Zakk Wylde and Kevin Churko.

If there is mistakes you can tell me right here: stefanoliberalemotabn@gmail.com

Standard tuning

Intro/Verses

Part1
e------------------------------------------|
B------------------------------------------|
G----------------------5-5--3-3------------|
D-5--5-5----5--5-5-----5-5--3-3------------|
A-5--5-5----5--5-5-----3-3--1-1------------|
E-3--3-3----3--3-3-------------------------|

Part2
e------------------------------------------|
B------------------------------------------|
G----------------------3-3--5-5------------|
D-5--5-5----5--5-5-----3-3--5-5------------|
A-5--5-5----5--5-5-----1-1--3-3------------|
E-3--3-3----3--3-3-------------------------|

Intro solo

e------------------------------------------|
B------------------------------------------|
G-17b(19)-------------15-15h17-15----------|
D------------------------------------------|
A------------------------------------------|
E------------------------------------------|


e------------------------------------------|
B------------------------------------------|
G---------h12-10---------------------------|
D------------------------------------------|
A------------------------------------------|
E------------------------------------------|

Back solo at verses
Part 1
                           pm---------------| ph
e-------------------------------------------|
B-------------------------------------------|
G-------------------------------------------|
D-------------------------------------------|
A-3h5-5---1h3-3---1-------------------------|
E--------------------------5--6--5---1--3---|
Part 2
                          pm----------------|  ph
e-------------------------------------------|
B-------------------------------------------|
G-------------------------------------------|
D-------------------------------------------|
A-3h5-5---1h3-3-------------------------6---|
E-----------------6--------6----5---1-------|
Part 3
                                      ph
e------------------------------------------|
B------------------------------------------|
G------------------------------------------|
D------------------------------------------|
A-3h5-5---1h3-3---1--1----3b(5)(3)-1---6---|
E------------------------------------------|
Pre-Chrous

e------------------------------------------|
B------------------------------------------|
G-8-8-8-10-10-10-12-12-7-7-7-8-8-8-10-10---|
D-8-8-8-10-10-10-12-12-7-7-7-8-8-8-10-10---|
A-6-6-6-8--8--8--10-10-5-5-5-6-6-6-8--8----|
E------------------------------------------|

                    ph----------------------|
e-------------------------------------------|
B-------------------------------------------|
G-5-5-5-5-5-5-5-5-5------3------------------|
D-5-5-5-5-5-5-5-5-5--------5-3--------------|
A-3-3-3-3-3-3-3-3-3--3-5-------5-3----------|
E-------------------------------------------|

e------------------------------------------|
B------------------------------------------|
G-8-8-8-10-10-10-12-12-7-7-7-8-8-8-10-10---|
D-8-8-8-10-10-10-12-12-7-7-7-8-8-8-10-10---|
A-6-6-6-8--8--8--10-10-5-5-5-6-6-6-8--8----|
E------------------------------------------|

                    pickslide---------------| Before the second chorus
e-------------------------------------------| is Auto-Flanging with a finger
B-------------------------------------------| in the D or G string. Both sounds
G-5-5-5-5-5-5-5-5-5-------------------------| great.
D-5-5-5-5-5-5-5-5-5-------------------------|
A-3-3-3-3-3-3-3-3-3-------------------------|
E-------------------------------------------|

Chorus

e----------------------------------------------|
B----------------------------------------------|
G-12-12-12-12-12-12-12-12-10-10-10-10-10-10-10-|
D-12-12-12-12-12-12-12-12-10-10-10-10-10-10-10-|
A-10-10-10-10-10-10-10-10-8--8--8--8--8--8--8--|
E----------------------------------------------|


e-----------------------------|
B-----------------------------|
G-8-8-8-8-8-8-8-7-7-7-7-7-7-7-|
D-8-8-8-8-8-8-8-7-7-7-7-7-7-7-|
A-6-6-6-6-6-6-6-5-5-5-5-5-5-5-|
E-----------------------------|

Only play this when the chorus' riff end the first time.
ph----
e---------|
B---------|
G-3-------|
D----5----|
A---------|
E---------|

Solo
e------------------------------------|
B------3h6h3------3h6h3------3h6h3---|
G-5b(7)------5b(7)------5b(7)--------|
D------------------------------------|
A------------------------------------|
E------------------------------------|

e-------------------------------------------|
B--------8h11h8--------8h11h8--------8h11h8-|
G-10b(12)-------10b(12)-------10b(12)-------|
D-------------------------------------------|
A-------------------------------------------|
E-------------------------------------------|

e--------------------------------------|
B-10-------10-------10-----10----------|
G-12b(14)--12b(14)--12b(14)12b(14)-----|
D--------------------------------------|
A--------------------------------------|
E--------------------------------------|


e----------------------------------------|
B-11-------11-------11-------11----------|
G-13b(15)--13b(15)--13b(15)--13b(15)-----|
D----------------------------------------|
A----------------------------------------|
E----------------------------------------|


e---------------------------------------------|
B-18b(20)(18)-18b(20)(18)-18b(20)(18)-18b(20)-|
G---------------------------------------------|
D---------------------------------------------|
A---------------------------------------------|
E---------------------------------------------|

e-15-15-15-15-18-15-15-15-------------------------------------|
B-------------------------18-18-15-15-------------------------|
G-------------------------------------17-17-15-15-------------|
D-------------------------------------------------17-17-15-15-|
A-------------------------------------------------------------|
E-------------------------------------------------------------|

e-------------------------------------15-15-15-18----15-20b(22)-|
B-------------------------15-15-18-18-------------18------------|
G-------------15-15-17-17---------------------------------------|
D-15-15-17-17---------------------------------------------------|
A---------------------------------------------------------------|
E---------------------------------------------------------------|

Outro
e------------------|
B------------------|
G------------------|
D-5--5-5----5--5-5-|
A-5--5-5----5--5-5-|
E-3--3-3----3--3-3-|





SONG ORDER:
Intro/Verse Part1
Intro/Verse Part2
Intro Solo
Intro/Verse Part1
Intro/Verse Part2
Intro/Verse Part1
Backing Solo Part1
Intro/Verse Part1
Intro/Verse Part2
Intro/Verse Part1
Backing Solo Part2
Pre-Chorus
Chorus
Intro/Verse Part1
Intro/Verse Part2
Intro/Verse Part1
Intro/Verse Part2
Intro/Verse Part1
Backing Solo Part1
Intro/Verse Part1
Intro/Verse Part2
Intro/Verse Part1
Backing Solo Part3
Pre-Chorus
Chorus
Solo
Intro/Verse Part1
Intro/Verse Part2
Intro Solo
Chorus
Outro

Rock On! SDMF
comments
We did not receive enough feedback on this tab! Please rate:
print report bad tab
1 2 3 4 5
I want to post or [tab]
guest
You may want to rate the tab now too:
select rating
Please do not post tabs as comments. Select "correction" instead!