Oops, an error
Loading. Please wait.

No More Tears Bass Tab

version 1
version 1

Whole song

Interactive

58,400 views 117 this week
14 commentsread comments
1 2 3 4 5
accurate
x 28
add to favorites
launch autoscroll
font size
0
reset
guitar tuner
Autoscroll
slow
fast
+/-
esc
set tempo
stop
Help us to improve Ultimate-Guitar.com Take our survey!
×
Title : No More Tears
Artist : Ozzy Osbourne
Album : No More Tears
Tabbed : ~~Hawk~~

Well, here it is this seems to be the most requested tab out there, I know most of it is 
bang on,
some parts (guitar solo) might be off, the bass isn't as clear during the solo. (Damn producers)

Enjoy.


  Bass Intro..

G|-5h7----5h7----5h7---|-5h7-----5h7-----5h7---|-5h7-----5h7-----5h7---|-5h7-----5h7-----5h7---|
D|----0-0----0-0-----0-|-----0-0-----0-0-----0-|-----0-0-----0-0-----0-|-----0-0-----0-0-----0-|
A|---------------------|-----------------------|-----------------------|-----------------------|
E|---------------------|-----------------------|-----------------------|-----------------------|

  Enter Drums...
G|-5h7-----5h7-----5h7---|-5h7-----5h7-----5h7---|-5h7-----5h7-----5h7---|-5h7-----5h7-----5h7-5h7-|
D|-----0-0-----0-0-----0-|-----0-0-----0-0-----0-|-----0-0-----0-0-----0-|-----0-0-----0-0---------|
A|-----------------------|-----------------------|-----------------------|-------------------------|
E|-----------------------|-----------------------|-----------------------|-------------------------|


  Play this riff with slight variation through first verse...up until.....
G|----5h7-----5h7---5h7-|----5h7-----5h7---5h7|----5h7-----5h7---5h7|-----5h7-----5h7---5h7-|
D|0-0-----0-0-----0-----|0-0-----0-0-----0----|0-0-----0-0-----0----|-0-0-----0-0-----0-----|
A|----------------------|---------------------|---------------------|-----------------------|
E|----------------------|---------------------|---------------------|-----------------------|

       You're momma told you......
G|-------|-----------------|------------------|-----------------|-----------------|
D|-------|-----------------|------------------|-----------------|-----------------|
A|-12/---|-----------------|------------------|-----------------|-----------------|
E|-----6-|-6-6-6-6-6-6-6-7-|6-6-6-6-6-6-6-6-8-|-6-6-6-6-6-6-6-6-|-4-4-4-4-5-5-5-5-|

G|------------------|------------------|-----------------|-----------------|
D|------------------|------------------|-----------------|-----------------|
A|------------------|------------------|-0-0-0-0-0-0-0-0-|-2-2-2-2-2-2-2-2-|
E|6-6-6-6-6-6-6-6-7-|6-6-6-6-6-6-6-6-8-|-----------------|-----------------|


  No More tears.....
G|---------------|--------------|
D|---7-----5---4-|---3----------|
A|-0------0---0--|-0------------|
E|---------------|------5-6-5/3-|

  Play this riff  again with slight variation...up until.....
G|----5h7-----5h7---5h7-|----5h7-----5h7---5h7|----5h7-----5h7---5h7|-----5h7-----5h7---5h7-|
D|0-0-----0-0-----0-----|0-0-----0-0-----0----|0-0-----0-0-----0----|-0-0-----0-0-----0-----|
A|----------------------|---------------------|---------------------|-----------------------|
E|----------------------|---------------------|---------------------|-----------------------|


        I see the mirror.....
G|-------|-----------------|------------------|-----------------|-----------------|
D|-------|-----------------|------------------|-----------------|-----------------|
A|-12/---|-----------------|------------------|-----------------|-----------------|
E|-----6-|-6-6-6-6-6-6-6-7-|6-6-6-6-6-6-6-6-8-|-6-6-6-6-6-6-6-6-|-4-4-4-4-5-5-5-5-|

G|------------------|------------------|-----------------|-----------------|
D|------------------|------------------|-----------------|-----------------|
A|------------------|------------------|-0-0-0-0-0-0-0-0-|-2-2-2-2-2-2-2-2-|
E|6-6-6-6-6-6-6-6-7-|6-6-6-6-6-6-6-6-8-|-----------------|-----------------|


  No More tears.....
G|---------------|--------------|
D|---7-----5---4-|---3----------|
A|-0------0---0--|-0------------|
E|---------------|------5-6-5/3-|


  Interlude.....rest....violins etc etc...etc..etc...
G|-----------------------------------------------------------------------------------------------|
D|-----------------------------------------------------------------------------------------------|
A|-----------------------------------------------------------------------------------------------|
E|-----------------------------------------------------------------------------------------------|

  Piano.....
G|-----------------------------------------------------------------------------------------------|
D|-----------------------------------------------------------------------------------------------|
A|-----------------------------------------------------------------------------------------------|
E|-----------------------------------------------------------------------------------------------|

  Drums kick in.....
G|-------|--------|------|--------|------|--------|------|-----------------|-----------------|
D|-------|--------|------|--------|------|--------|------|-----------------|-----------------|
A|--0----|-0-2----|-0----|--0-2---|-0----|-2-3----|-0---2|-4-4-4-4-4-4-4-4-|-4-4-4-4-4-4-4-4-|
E|-------|--------|------|--------|------|--------|------|-----------------|-----------------|


G|-----------------|-----------------|-----------------|-----------------|-----------------|
D|-----------------|-----------------|-----------------|-----------------|-----------------|
A|-0-0-0-0-0-0-0-2-|-2-2-2-2-2-2-2---|---------------0-|-0-0-0-0-0-0-0-2-|-2-2-2-2-2-2-2-2-|
E|-----------------|---------------3-|-3-3-3-3-3-3-3---|-----------------|-----------------|

G|-------------------|
D|-------------------|
A|-------------------|
E|-3-3-3-3-3-3-3-12/-|

G|-----------------|-----------------|-----------------|-----------------|----|
D|-----------------|-----------------|-----------------|-----------------|----|
A|-----------------|-----------------|-----------------|-----------------|----|
E|-5-5-5-5-5-5-5-5-|-6-6-6-6-6-6-6-6-|-7-7-7-7-7-7-7-7-|-8-8-8-8-9-9-9-9-|-10-|


  Play this riff Once  again with slight variation...up until.....
G|----5h7-----5h7---5h7-|----5h7-----5h7---5h7|----5h7-----5h7---5h7|-----5h7-----5h7---5h7-|
D|0-0-----0-0-----0-----|0-0-----0-0-----0----|0-0-----0-0-----0----|-0-0-----0-0-----0-----|
A|----------------------|---------------------|---------------------|-----------------------|
E|----------------------|---------------------|---------------------|-----------------------|


         I never wanted it to end....
G|-------|-----------------|------------------|-----------------|-----------------|
D|-------|-----------------|------------------|-----------------|-----------------|
A|-12/---|-----------------|------------------|-----------------|-----------------|
E|-----6-|-6-6-6-6-6-6-6-7-|6-6-6-6-6-6-6-6-8-|-6-6-6-6-6-6-6-6-|-4-4-4-4-5-5-5-5-|

G|------------------|------------------|-----------------|-----------------|
D|------------------|------------------|-----------------|-----------------|
A|------------------|------------------|-0-0-0-0-0-0-0-0-|-2-2-2-2-2-2-2-2-|
E|6-6-6-6-6-6-6-6-7-|6-6-6-6-6-6-6-6-8-|-----------------|-----------------|


  No More tears.....
G|---------------|--------------|
D|---7-----5---4-|---3----------|
A|-0------0---0--|-0------------|
E|---------------|------5-6-5/3-|


  (Last Time)
G|---------------|----------------|
D|---7-----5---4-|---3------------|
A|-0------0---0--|-0--------------|
E|---------------|------5-6-5/3-0-|

End



************************************

| h  Hammer-on
| /  Slide up

************************************
Suggest correction
comments
print report bad tab
14 comments total. Showing first comments.
-1 reply
spiderman86 60 wrote on January 29 2003, 12:00 am

not too bad pretty nice

+1 reply
Justin van Uum 560 wrote on July 15 2004, 12:00 am

not good!The song is tuned a half step down and you've tabbed some things on the wrong string

+1 reply
chandra.taylor 10 wrote on August 9 2006, 10:31 pm

doesnt exactly sound right

guest
You may want to rate the tab now too:
select rating
Please do not post tabs as comments. Select "correction" instead!