Oops, an error
Loading. Please wait.
We have an official No More Tears tab made by UG professional guitarists. Check out the tab »
×
601 views 15 this week
1 commentread comment
1 2 3 4 5
x 3
add to favorites
×
Save as Personal and add changes to this tab that will be seen only by you. Learn more ›
×
You can save this tab as Personal to edit and correct it or add notes. All changes will be seen only by you. Learn more »
launch autoscroll
font size
0
reset
guitar tuner
backing track
0:00
0:00
edit
Autoscroll
slow
fast
+/-
esc
set tempo
stop
No More Tears by Ozzy Osbourne
From the album No More Tears (1991)
Written by Ozzy Osbourne, Zakk Wylde, Mike Inez, Randy Castillo and John Purdell
All rights belong to their respective owners

Tabbed by Jaakko Karppinen

I have based this tab on the bass track you can find in Youtube, so it should be pretty much 100% correct.
This song may seem like a piece of cake, but the time changes are quite challenging, especially on the main
riff and pre-chorus parts. The drop C# tuning is the most obvious tuning for this song, but when tabbing this
I figured out it could be played in very odd drop C#F# (C#F#C#F#) tuning. It would make some parts a bit
easier to play. I have tabbed this song for a 4 string bass because it can be played on a 4 string very well,
but I actually like to play it on a 5 string with an extra high B string. And some chorus effect suits well
too!

Bass Track: https://www.youtube.com/watch?v=e_XAf1dphCo


Intro
||---5h7---------5h7---------5h7-----5h7---------5h7---------5h7--------||
||-o-----0---0-------0---0-------0-------0---0-------0---0-------0----o-||
||-o------------------------------------------------------------------o-|| x2
||----------------------------------------------------------------------||

Drums enter
||---5h7-5h7---------5h7---------5h7-----5h7---------5h7---------5h7------|
||-o---------0---0-------0---0-------0-------0---0-------0---0-------0----|
||-o----------------------------------------------------------------------|
||------------------------------------------------------------------------|

|-5h7---------5h7---------5h7-----5h7---------5h7----------|
|-----0---0-------0---0-------0-------0---0-------0---0----|
|----------------------------------------------------------|
|----------------------------------------------------------|

|-5h7-5h7---------5h7---------5h7-----5h7---------5h7---------5h7------|
|---------0---0-------0---0-------0-------0---0-------0---0-------0----|
|----------------------------------------------------------------------|
|----------------------------------------------------------------------|

|-5h7---------5h7---------5h7-----5h7---------5h7---------5h7--------||
|-----0---0-------0---0-------0-------0---0-------0---0-------0----o-||
|------------------------------------------------------------------o-||
|--------------------------------------------------------------------||


Bridge
|-5h7-5h7---------5h7---------5h7-----5h7---------5h7---------5h7------|
|---------0---0-------0---0-------0-------0---0-------0---0-------0----|
|----------------------------------------------------------------------|
|----------------------------------------------------------------------|


Verse 1
|-5h7---------5h7---------5h7-----5h7---------5h7----------|
|-----0---0-------0---0-------0-------0---0-------0---0----|
|----------------------------------------------------------|
|----------------------------------------------------------|

|-5h7-5h7---------5h7---------5h7-----5h7---------5h7---------5h7------|
|---------0---0-------0---0-------0-------0---0-------0---0-------0----|
|----------------------------------------------------------------------|
|----------------------------------------------------------------------|

|-5h7-5h7---------5h7---------5h7-----5h7---------5h7----------|
|---------0---0-------0---0-------0-------0---0-------0---0----|
|--------------------------------------------------------------|
|--------------------------------------------------------------|

|-5h7-5h7---------5h7---------5h7-----5h7---------5h7---------5h7------|
|---------0---0-------0---0-------0-------0---0-------0---0-------0----|
|----------------------------------------------------------------------|
|----------------------------------------------------------------------|

|-5h7-5h7---------5h7---------5h7-----5h7---------5h7----------|
|---------0---0-------0---0-------0-------0---0-------0---0----|
|--------------------------------------------------------------|
|--------------------------------------------------------------|

|-5h7-5h7---------5h7---------5h7-----5h7---------5h7---------5h7------|
|---------0---0-------0---0-------0-------0---0-------0---0-------0----|
|----------------------------------------------------------------------|
|----------------------------------------------------------------------|

|-5h7-5h7---------5h7---------5h7-----5h7---------5h7----------|
|---------0---0-------0---0-------0-------0---0-------0---0----|
|--------------------------------------------------------------|
|--------------------------------------------------------------|

|-5h7-5h7---------5h7---------5h7-----5h7---------5h7----------------------|
|---------0---0-------0---0-------0-------0---0-------0---0----------------|
|-------------------------------------------------------------5-7-7-7-7-7--|
|--------------------------------------------------------------------------|


Pre-Chorus 1
|--------------------------------------------------------------------------|
|--------------------------------------------------------------------------|
|-5---5---5---5---5---5---5---7-\----/5---5---5---5---5---5---5---8-\------|
|--------------------------------------------------------------------------|

|----------------------------------------------------------|
|-------------------------------------------------12-------|
|-5---5---5---5---7/13-13\----5---5---5---5---5-/-----12-\-|
|----------------------------------------------------------|

|--------------------------------------------------------------------------|
|--------------------------------------------------------------------------|
|-5---5---5---5---5---5---5---7-\-----/5--5---5---5---5---5---5---8-\------|
|--------------------------------------------------------------------------|

|-----------------------------------------14------------------|
|---------------------------------5-/-12------12-12------12-\-|
|-5---5---5---5---7/13-13\----5--------------------12-12------|
|-------------------------------------------------------------|

|------------------------------------------------------------------|
|------------------------------------------------------------------|
|-7---7---7---7-------------------/8--8---8---8---8---8-\----------|
|-----------------9-\-----2-------------------------------3---3----|


Chorus
||-------7-----------5-----------4-----------3--------------------------||
||-o-0-----------0-----------0-----------0----------------------------o-||
||-o------------------------------------------------------------------o-|| 4X
||---------------------------------------------------5---6---5---3------||


Bridge
|-5h7---------5h7---------5h7-----5h7---------5h7---------5h7------|
|-----0---0-------0---0-------0-------0---0-------0---0-------0----|
|------------------------------------------------------------------|
|------------------------------------------------------------------|


Verse 2
|-5h7---------5h7---------5h7-----5h7---------5h7----------|
|-----0---0-------0---0-------0-------0---0-------0---0----|
|----------------------------------------------------------|
|----------------------------------------------------------|

|-5h7-5h7---------5h7---------5h7-----5h7---------5h7---------5h7------|
|---------0---0-------0---0-------0-------0---0-------0---0-------0----|
|----------------------------------------------------------------------|
|----------------------------------------------------------------------|

|-5h7-5h7---------5h7---------5h7-----5h7---------5h7----------|
|---------0---0-------0---0-------0-------0---0-------0---0----|
|--------------------------------------------------------------|
|--------------------------------------------------------------|

|-5h7-5h7---------5h7---------5h7-----5h7---------5h7-----7----------------|
|---------0---0-------0---0-------0-------0---0-------0-------7-------7----|
|-----------------------------------------------------------------5--------|
|--------------------------------------------------------------------------|


Pre-Chorus 2
|--------------------------------------------------------------------------|
|--------------------------------------------------------------------------|
|-5---5---5---5---5---5---5---7-\----/5---5---5---5---5---5---5---8-\----/-|
|--------------------------------------------------------------------------|

|-------------------------------------------------7--------|
|---------------------------------------------7-7-----7----|
|-5---5---5---5---7/13-13\----5---5---5---5----------------|
|----------------------------------------------------------|

|--------------------------------------------------------------------------|
|--------------------------------------------------------------------------|
|-5---5---5---5---5---5---5---7-\----/5---5---5---5---5---5---5---8-\----/-|
|--------------------------------------------------------------------------|

|-----------------------------------------7---14--/19--\---|
|-------------------------------------7-7------------------|
|-5---5---5---5---7/13-13\----5---5------------------------|
|----------------------------------------------------------|

|------------------------------------------------------------------|
|------------------------------------------------------------------|
|-7---7---7---7------------------/8---8---8---8---8---8-\----------|
|-----------------9-\-----2-------------------------------3---3----|


Chorus
||-------7-----------5-----------4-----------3--------------------------||
||-o-0-----------0-----------0-----------0----------------------------o-||
||-o------------------------------------------------------------------o-|| 4X
||---------------------------------------------------5---6---5---3------||


Interlude
|------------------------------------------------------------------|
|------------------------------------------------------------------|
|------------------------------------------------------------------|
|-0----------------------------------------------------------------|


Build-up (bass comes back in 4:36)
|------------------------------------------------------------------|
|------------------------------------------------------------------|
|------------------------------------------------------------------|
|-5---5---5---5---5---5---5---5---5---5---5---5---5---5---5---5----|


Guitar Solo
|------------------------------------------------------------------|
|------------------------------------------------------------------|
|-----------------.-----------5-----3-5-3-5-----3-5-3-0---0---3----|
|-3-------3---3-3-5---5---5-----------------------------5----------|

|------------------------------------------------------------------|
|-----------------------------------3-------.-----3----------------|
|-----------------.-----------5-------5-3-5-5-------5-3-5---3-0----|
|-3-------3-------5---5---5-------------------------------------5--|

|------------------------------------------------------------------|
|-----------------------------------------------3------------------|
|-----------------------------5-------5---5-------5-3-5-----3-0----|
|-3-------3-------5---5---5-------------------------------------5--|

|------------------------------------------------------------------|
|------------------------------------------------------------------|
|------------------------------------------------------------------|
|-3-------3---3---3---3---3---3-/-5---5---5---5---5---5---5---5----|

|--------------------------------------------------------------|
|---------------------------------------------------------.----|
|-0---0---0---0---0---0---0---0---1---1---1---1---3---3---3----|
|--------------------------------------------------------------|


Intro
|-5-7---------5-7---------5h7-----5h7---------5h7---------5h7------|
|-----0---0-------0---0-------0-------0---0-------0---0-------0----|
|------------------------------------------------------------------|
|------------------------------------------------------------------|

|-5h7-5h7---------5h7---------5h7-----5h7---------5h7---------5h7------|
|---------0---0-------0---0-------0-------0---0-------0---0-------0----|
|----------------------------------------------------------------------|
|----------------------------------------------------------------------|

|-5h7---------5h7---------5h7-----5h7---------5h7----------|
|-----0---0-------0---0-------0-------0---0-------0---0----|
|----------------------------------------------------------|
|----------------------------------------------------------|

|-5h7-5h7---------5h7---------5h7-----5h7---------5h7---------5h7------|
|---------0---0-------0---0-------0-------0---0-------0---0-------0----|
|----------------------------------------------------------------------|
|----------------------------------------------------------------------|

|-5h7---------5h7---------5h7-----5h7---------5h7---------5h7------|
|-----0---0-------0---0-------0-------0---0-------0---0-------0----|
|------------------------------------------------------------------|
|------------------------------------------------------------------|


Verse 3
|-5h7-5h7---------5h7---------5h7-----5h7---------5h7----------|
|---------0---0-------0---0-------0-------0---0-------0---0----|
|--------------------------------------------------------------|
|--------------------------------------------------------------|

||---5h7-5h7---------5h7---------5h7-----5h7---------5h7---------5h7------|
||-o---------0---0-------0---0-------0-------0---0-------0---0-------0----|
||-o----------------------------------------------------------------------|
||------------------------------------------------------------------------|

|-5h7-5h7---------5h7---------5h7-----5h7---------5h7------------||
|---------0---0-------0---0-------0-------0---0-------0---0----o-||
|--------------------------------------------------------------o-|| 3X
|----------------------------------------------------------------||

|-5h7-5h7---------5h7---------5h7-----5h7---------5h7-----7----------------|
|---------0---0-------0---0-------0-------0---0-------0--------------------|
|-------------------------------------------------------------5-7-7---7----|
|--------------------------------------------------------------------------|


Pre-Chorus 3
|--------------------------------------------------------------------------|
|--------------------------------------------------------------------------|
|-5---5---5---5---5---5---5---7-\-----/5--5---5---5---5---5---5---8-\----/-|
|--------------------------------------------------------------------------|

|----------------------------------------------14-----------|
|------------------------------------------12------12-------|
|-5---5---5---5---7/13-13\----5---5---12-12------------12\--|
|----------------------------------------------------------|

|--------------------------------------------------------------------------|
|--------------------------------------------------------------------------|
|-5---5---5---5---5---5---5---7-\----/5---5---5---5---5---5---5---8-\----/-|
|--------------------------------------------------------------------------|

|-------------------------------------7---14--14--/19--\---|
|---------------------------------7-7----------------------|
|-5---5---5---5---7/13-13\----5----------------------------|
|----------------------------------------------------------|

|------------------------------------------------------------------|
|------------------------------------------------------------------|
|-7---7---7---7------------------/8---8---8---8---8---8-\----------|
|-----------------9-\-----2-------------------------------3---3----|


Chorus
||-------7-----------5-----------4-----------3--------------------------||
||-o-0-----------0-----------0-----------0----------------------------o-||
||-o------------------------------------------------------------------o-|| 4X
||---------------------------------------------------5---6---5---3------||


Outro
||------------------------------------------------------------------------------||     |------|
||-o--------------------------------------------------------------------------o-||     |------|
||-o---------5-----------3-----------2-----------1----(1)-/-------------------o-|| 4X  |------|
||---0---------------0-----------0-----------0---------------5---6---5---3------||     |-0----|

            
            
Suggest correction
Creating personal tab
Creating personal tab
You can edit any tab online and save it as your Personal.

You can edit, replace or remove any tab part or add personal notes – all changes will be seen only by you.

Personal tabs can be accessed anytime from any device, even offline.
Learn more »
Give kudos to tab author, rate the tab!
1 2 3 4 5
comments
print report bad tab
1 comment total.
+1 reply
BenSt28 222 Jan 14, 2017 05:42 AM

the best one so far!

guest
You may want to rate the tab now too:
select rating
Wanna post a correction for this tab? Suggest correction