Oops, an error
Loading. Please wait.

Not Going Away bass

version 1
version 1

Whole song

Interactive

2,626 views 1 this week
4 commentsread comments
1 2 3 4 5
1 last vote to show rating
add to favorites
×
Save as Personal and add changes to this tab that will be seen only by you. Learn more ›
×
You can save this tab as Personal to edit and correct it or add notes. All changes will be seen only by you. Learn more »
launch autoscroll
font size
0
reset
guitar tuner
edit
Autoscroll
slow
fast
+/-
esc
set tempo
stop
Band: Ozzy Osbourne
Song: Not Going Away
CD: Black Rain
Yeah: 2007
BASS TAB
Tuning: Drop C

There's no bass during the first eleven seconds of the song. 

Intro (x2)

F|------------|
C|------------|
G|------------|
C|--0--3h2h3--|

F|---------------|
C|---------------|
G|--1--0--3h2h3--| (x2)

F|-------|
C|-------|
G|-------|
C|--5/7--|

Verse (x4)

F|------------|
C|------------|
G|------------|
C|--0--3h2h3--|

F|---------------|
C|---------------|
G|--1--0--3h2h3--| (x2)

F|----------------|
C|----------------|
G|----------------|
C|--7--9-8---8\6--|

Pre Chorus:

F|------------------|-----------------|-----------------|----------------|
C|------------------|-----------------|-----------------|----------------|
G|------------------|-----------------|-----------------|----------------|
C|--4-4-4-4-4-4-4-4-|-3-3-3-3-3-3-3-3-|-2-2-2-2-2-2-2-2-|-1-1-1-1-1-3\2--|

Chorus (x4)

F|------------------|------------|--------------------|
C|------------------|------------|--------------------|
G|------------------|------------|--------------------|
C|--1--0--1--0--3b--|--1--0--3b--|--1--0--1--0--1--0--|

Verse (x4)
Pre Chorus
Chorus (x4)

During Solo:

F|----------------|
C|----------------|
G|----------------| (x2)
C|--7--9-8---8\6--|


F|------------|
C|------------|
G|------------|
C|--0--3h2h3--|

F|---------------|
C|---------------|
G|--1--0--3h2h3--| (x2)

F|----------------|
C|----------------|
G|----------------| 
C|--7--9-8---8\6--|

F|------------|
C|------------|
G|------------|
C|--0--3h2h3--|

F|---------------|
C|---------------|
G|--1--0--3h2h3--| (x2)

F|----------------|
C|----------------|
G|----------------| 
C|--7--9-8---8\6--|

F|------------------|-----------------|-----------------|----------------|
C|------------------|-----------------|-----------------|----------------|
G|------------------|-----------------|-----------------|----------------|
C|--4-4-4-4-4-4-4-4-|-3-3-3-3-3-3-3-3-|-2-2-2-2-2-2-2-2-|-1-1-1-1-1-3\2--|

F|------------------|-----------------|-----|
C|------------------|-----------------|-----|
G|------------------|-----------------|-----|
C|--4-4-4-4-4-4-4-4-|-3-3-3-3-3-3-3-3-|-2-2-|

Bridge (x2)

F|------------|
C|------------|
G|------------|
C|--0--3h2h3--|

F|---------------|
C|---------------|
G|--1--0--3h2h3--| (x2)

F|-------|
C|-------|
G|-------|
C|--5/7--|

Chorus (x7)

Outro:

F|------------------|------------|--------------------|
C|------------------|------------|--------------------|
G|------------------|------------|--------------------|
C|--1--0--1--0--3b--|--1--0--3b--|--1--0--1--0--1--0--|

END























            
            
Suggest correction
Creating personal tab
Creating personal tab
You can edit any tab online and save it as your Personal.

You can edit, replace or remove any tab part or add personal notes – all changes will be seen only by you.

Personal tabs can be accessed anytime from any device, even offline.
Learn more »
Give kudos to tab author, rate the tab!
1 2 3 4 5
comments
print report bad tab
4 comments total. Showing first comments.
0 reply
aliceinchains42 128 Jul 23, 2007 08:38 AM

WOW, another great tab, DUDE!!!

0 reply
brett dixon 141 Jul 23, 2007 08:49 AM

This tab rocks the house!

0 reply
Neo Drayon 10 Nov 01, 2007 12:32 PM

lol i'm an idoit XD. i clikd thinkin this was a guitar tab. I have an idea of how it would sound on bass and i say; Right on =)

guest
You may want to rate the tab now too:
select rating
Wanna post a correction for this tab? Suggest correction