Oops, an error
Loading. Please wait.

Over The Mountain bass

version 2
version 2

Whole song

Interactive

2,746 views 3 this week
1 commentread comment
1 2 3 4 5
1 last vote to show rating
add to favorites
×
Save as Personal and add changes to this tab that will be seen only by you. Learn more ›
×
You can save this tab as Personal to edit and correct it or add notes. All changes will be seen only by you. Learn more »
launch autoscroll
font size
0
reset
guitar tuner
backing track
0:00
0:00
edit
Autoscroll
slow
fast
+/-
esc
set tempo
stop
-------------------------------------------------------------------------------
                             OVER THE MOUNTAIN - Ozzy Osbourne
-------------------------------------------------------------------------------


Tabbed By : Isaias Garcia (TexasFury)

Tuning: Eb (tune down 1/2 step)


      Intro - m.2
      E  E     E  E  E  E  E  E  E  E     E  E  E  E  E  E  E  E   
F#||--------|--------------------------|--------------------------|
C#||--------|--------------------------|--------------------------|
G#||--------|--------------------------|--------------------------|
D#||--0--5--|--4--4--4--4--4--4--4--4--|--4--4--4--4--4--4--0--5--|


  E  E  E  E  E  E  E  E     E  E  E  E  E  E  E  E   
--------------------------|--------------------------|
--------------------------|--------------------------|
--------------------------|--------------------------|
--4--4--4--4--4--4--4--4--|--4--4--4--4--4--4--0--5--|


  E  E  E  E  E  E  E  E     E  E  E  E  E  E  E  E   
--------------------------|--------------------------|
--------------------------|--------------------------|
--------------------------|--------------------------|
--4--4--4--4--4--4--4--4--|--4--4--4--4--4--4--0--5--|


  E  E  E  E  E  E  E  E     E  E  E  E  E  E  E  E   
--------------------------|--------------------------||
--------------------------|--------------------------||
--------------------------|--------------------------||
--4--4--4--4--4--4--4--4--|--4--4--4--4--0--0--2--2--||


  Verse 1                                                                            
  E  E  E  E  E  E  E  E     E  E  E  E  E  E  Q       E  E  E  E  E  E  E  E   
--------------------------|-------------------------|--------------------------|
--------------------------|-------------------------|--------------------------|
--------------------------|--------------------4----|--------------------------|
--4--4--4--4--4--4--4--4--|--4--4--4--4--4--4-------|--4--4--4--4--4--4--4--4--|


  E  E  E  E  E  E  Q       E  E  E  E  E  E  E  E     E  E  E  E  E  E  Q     
-------------------------|--------------------------|-------------------------|
-------------------------|--------------------------|-------------------------|
-------------------------|--------------------------|--------------------4----|
--4--4--4--4--4--0--2----|--4--4--4--4--4--4--4--4--|--4--4--4--4--4--4-------|


  E  E  E  E  E  E  E  E     E  E  E  E  E  E  Q       E  E  E  E  E  E  E  E   
--------------------------|-------------------------|--------------------------|
--------------------------|-------------------------|--------------------------|
--------------------------|-------------------------|--------------------------|
--4--4--4--4--4--4--4--4--|--4--4--4--4--4--0--2----|--4--4--4--4--4--4--4--4--|


  E  E  E  E  E  E  Q       E  E  E  E  E  E  E  E     E  E  E  E  E  E  Q     
-------------------------|--------------------------|-------------------------|
-------------------------|--------------------------|-------------------------|
--------------------4----|--------------------------|-------------------------|
--4--4--4--4--4--4-------|--4--4--4--4--4--4--4--4--|--4--4--4--4--4--0--2----|


  E  E  E  E  E  E  E  E     E  E  E  E  E  E  Q       E  E  E  E  E  E  E  E   
--------------------------|-------------------------|--------------------------|
--------------------------|-------------------------|--------------------------|
--------------------------|--------------------4----|--------------------------|
--4--4--4--4--4--4--4--4--|--4--4--4--4--4--4-------|--4--4--4--4--4--4--4--4--|


                               Pre-chorus 1                       
  E  E  E  E  E  E  E   E      E  E  E  E  E  E  E  E   
---------------------------||--------------------------|
---------------------------||--------------------------|
---------------------------||--7-----------7-----------|
--4--4--4--4--4--0--2s--4--||-----7--0--7-----7--0--7--|


  E  E  E  E  E  E  E  S  S    E  E  E  E  E  E  E  E   
----------------------------|--------------------------|
----------------------------|--------------------------|
--9-----------9-------------|--7-----------7-----------|
-----7--0--7-----7--0--7h-9-|-----7--0--7-----7--0--7--|


  E  E  E  E  E  E  E  S  S    E  E  E  E  E  E  E  E   
----------------------------|--------------------------|
----------------------------|--------------------------|
--9-----------9-------------|--7-----------7-----------|
-----7--0--7-----7--0--7h-9-|-----7--0--7-----7--0--7--|


  E  E  E  E  E  E  E  S  S    E  E  E  E  E  E  E  E   
----------------------------|--------------------------|
----------------------------|--------------------------|
--9-----------9-------------|--7-----------7-----------|
-----7--0--7-----7--0--7h-9-|-----7--0--7-----7--0--7--|


  E  E  E  E  E  E   E  E     E  E  E  E  E  E  E  E   
---------------------------|--------------------------|
---------------------------|--------------------------|
--9-----------9------------|--------------------------|
-----7--0--7-----7\--0--5--|--4--4--4--4--4--4--4--4--|


  E  E  E  E  E  E  E  E     E  E  E  E  E  E  E  E   
--------------------------|--------------------------|
--------------------------|--------------------------|
--------------------------|--------------------------|
--4--4--4--4--4--4--0--5--|--4--4--4--4--4--4--4--4--|


                              Verse 2                                                 
  E  E  E  E  E  E  E  E      E  E  E  E  E  E  E  E     E  E  E  E  E  E  Q     
--------------------------||--------------------------|-------------------------|
--------------------------||--------------------------|-------------------------|
--------------------------||--------------------------|--------------------4----|
--4--4--4--4--0--0--2--2--||--4--4--4--4--4--4--4--4--|--4--4--4--4--4--4-------|


  E  E  E  E  E  E  E  E     E  E  E  E  E  E  Q       E  E  E  E  E  E  E  E   
--------------------------|-------------------------|--------------------------|
--------------------------|-------------------------|--------------------------|
--------------------------|-------------------------|--------------------------|
--4--4--4--4--4--4--4--4--|--4--4--4--4--4--0--2----|--4--4--4--4--4--4--4--4--|


  E  E  E  E  E  E  Q       E  E  E  E  E  E  E  E     E  E  E  E  E  E  E  E   
-------------------------|--------------------------|--------------------------|
-------------------------|--------------------------|--------------------------|
--------------------4----|--------------------------|--------------------------|
--4--4--4--4--4--4-------|--4--4--4--4--4--4--4--4--|--4--4--4--4--4--0--2--2--|


  E  E  E  E  E  E  E  E     E  E  E  E  E  E  Q       E  E  E  E  E  E  E  E   
--------------------------|-------------------------|--------------------------|
--------------------------|-------------------------|--------------------------|
--------------------------|--------------------4----|--------------------------|
--4--4--4--4--4--4--4--4--|--4--4--4--4--4--4-------|--4--4--4--4--4--4--4--4--|


  E  E  E  E  E  E  Q       E  E  E  E  E  E  E  E     E  E  E  E  E  E  Q     
-------------------------|--------------------------|-------------------------|
-------------------------|--------------------------|-------------------------|
-------------------------|--------------------------|--------------------4----|
--4--4--4--4--4--0--2----|--4--4--4--4--4--4--4--4--|--4--4--4--4--4--4-------|


  E  E  E  E  E  E  E  E     E  E  E  E  E  E  E   E   
--------------------------|---------------------------||
--------------------------|---------------------------||
--------------------------|---------------------------||
--4--4--4--4--4--4--4--4--|--4--4--4--4--4--0--2h--4--||


  Pre-chorus 2                                                    
  E  E  E  E  E  E  E  E     E  E  E  E  E  E  E  S  S  
--------------------------|----------------------------|
--------------------------|----------------------------|
--7-----------7-----------|--9-----------9-------------|
-----7--0--7-----7--0--7--|-----7--0--7-----7--0--7h-9-|


  E  E  E  E  E  E  E  E     E  E  E  E  E  E  E  S  S  
--------------------------|----------------------------|
--------------------------|----------------------------|
--7-----------7-----------|--9-----------9-------------|
-----7--0--7-----7--0--7--|-----7--0--7-----7--0--7h-9-|


  E  E  E  E  E  E  E  E     E  E  E  E  E  E  E  S  S  
--------------------------|----------------------------|
--------------------------|----------------------------|
--7-----------7-----------|--9-----------9-------------|
-----7--0--7-----7--0--7--|-----7--0--7-----7--0--7h-9-|


  E  E  E  E  E  E  E  E     E  E  E  E  E  E   E  E   
--------------------------|---------------------------|
--------------------------|---------------------------|
--7-----------7-----------|--9-----------9------------|
-----7--0--7-----7--0--7--|-----7--0--7-----7\--0--5--|


  E  E  E  E  E  E  E  E     E  E  E  E  E  E  E  E   
--------------------------|--------------------------|
--------------------------|--------------------------|
--------------------------|--------------------------|
--4--4--4--4--4--4--4--4--|--4--4--4--4--4--4--0--5--|


                                                       Bridge 1                    
  E  E  E  E  E  E  E  E     E  E  E  E  Q    Q        Q    E  E  Q    Q     
--------------------------|------------------------||-----------------------|
--------------------------|------------------------||-----------------------|
--------------------------|-------------------2----||--4---------------4----|
--4--4--4--4--4--4--4--4--|--4--4--4--4--2---------||----------4--4---------|


  Q    E  E  Q    Q       Q    E  E  E  E  E  E     E  E  E  E  E  E  E  E    
-----------------------|-------------------------|---------------------------|
-----------------------|-------------------------|---------------------------|
--2---------------2----|--4----4-----------------|---------------------------|
----------2--2---------|----------4--4--4--5--7--|--L--5--7--5--7--5--7--5\--|


  Q    E  E  Q    Q       Q    E  E  Q    Q       Q    E  E  E  E  E  E   
-----------------------|-----------------------|-------------------------|
-----------------------|-----------------------|-------------------------|
--4---------------4----|--2---------------2----|--4----4-----------------|
----------4--4---------|----------2--2---------|----------4--4--2--4--5--|


  E  E  E  E  E  E  E.  S    E  E  E.  S E  E  E.  S  
--------------------------|--------------------------|
--------------------------|--------------------------|
------------------------4-|--6--6------4-6--6------4-|
--L--4--5--4--5--4--5-----|--------------------------|


  E  E  E.  S E  E  E  E      E  E  E.  S E  E  E.  S  
---------------------------|--------------------------|
---------------------------|--------------------------|
--6--6------4-6------------|--6--6------4-6--6------4-|
-----------------4--L--L\--|--------------------------|


  E  E  E.  S E  E  E  E      E  E  E.  S E  E  E.  S  
---------------------------|--------------------------|
---------------------------|--------------------------|
--6--6------4-6------------|--6--6------4-6--6------4-|
-----------------4--L--L\--|--------------------------|


  E  E  E.  S E  E  E  E      E  E  E.  S E  E  E.  S  
---------------------------|--------------------------|
---------------------------|--------------------------|
--6--6------4-6------------|--6--6------4-6--6------4-|
-----------------4--L--L\--|--------------------------|


                              Guitar Solo                                                 
  E  E  E.  S E  E  S E.      Q    E  E  E  E  E  E     E  E  E  E  E  E  E  E   
--------------------------||-------------------------|--------------------------|
--------------------------||-------------------------|--------------------------|
--6--6------4-6--2--L-2---||-------------------------|--------------------------|
--------------------------||--4----4--4--4--4--4--4--|--4--4--4--4--4--4--4--4--|


  E  E  E  E  E  E  E  E     E  E  E  E  E  E  S E.     Q    E  E  E  E  E  E   
--------------------------|--------------------------|-------------------------|
--------------------------|--------------------------|-------------------------|
--------------------------|-----------------2----3---|--4----4--4--4--4--4--4--|
--4--4--4--4--4--4--4--4--|--4--4--4--4--4-----------|-------------------------|


  E  E  E  E  E  E  E  E     E  E  E  E  E  E  E  E   
--------------------------|--------------------------|
--------------------------|--------------------------|
--4--4--4--4--0--0--2--2--|--4--4--4--4--4--4--4--4--|
--------------------------|--------------------------|


  E  E  E  E  E  E  E  E     E  E  E  E  E  E  E  E   
--------------------------|--------------------------|
--------------------------|--------------------------|
--4--4--4--4--------------|--------------------------|
--------------0--0--2--2--|--4--4--4--4--4--4--4--4--|


  E  E  E  E  E  E  E  E     E  E  E  E  E  E  E  E   
--------------------------|--------------------------|
--------------------------|--------------------------|
--------------------------|--------------------------|
--4--4--4--4--0--0--2--2--|--4--4--4--4--4--4--4--4--|


  E  E  E  E  E  E  E  E     E  E  Q    H           W                 
--------------------------|----------------------|-------------------|
--------------------------|----------------------|-------------------|
--------------------------|----------------------|-------------------|
--4--4--4--4--4--4--4--4--|--0--0----------------|-------------------|


  E  E  Q    H           W                   E  E  Q    H         
----------------------|-------------------|----------------------|
----------------------|-------------------|----------------------|
----------------------|-------------------|----------------------|
--0--0----------------|-------------------|--0--0----------------|


  W                   W                   H        Q    E  E   
-------------------|-------------------|----------------------|
-------------------|-------------------|----------------------|
-------------------|-------------------|----------------------|
-------------------|-------------------|----------------0--5--|


  E  E  E  E  E  E  E  E     E  E  E  E  E  E  E  E   
--------------------------|--------------------------|
--------------------------|--------------------------|
--------------------------|--------------------------|
--4--4--4--4--4--4--4--4--|--4--4--4--4--4--4--0--5--|


  E  E  E  E  E  E  E  E     E  E  E  E  E  E  E  E   
--------------------------|--------------------------||
--------------------------|--------------------------||
--------------------------|--------------------------||
--4--4--4--4--4--4--4--4--|--4--4--4--4--0--0--2--2--||


  Verse 3                                                                            
  E  E  E  E  E  E  E  E     E  E  E  E  E  E  Q       E  E  E  E  E  E  E  E   
--------------------------|-------------------------|--------------------------|
--------------------------|-------------------------|--------------------------|
--------------------------|--------------------4----|--------------------------|
--4--4--4--4--4--4--4--4--|--4--4--4--4--4--4-------|--4--4--4--4--4--4--4--4--|


  E  E  E  E  E  E  Q       E  E  E  E  E  E  E  E     E  E  E  E  E  E  Q     
-------------------------|--------------------------|-------------------------|
-------------------------|--------------------------|-------------------------|
-------------------------|--------------------------|--------------------4----|
--4--4--4--4--4--0--2----|--4--4--4--4--4--4--4--4--|--4--4--4--4--4--4-------|


  E  E  E  E  E  E  E  E     E  E  E  E  E  E  Q       E  E  E  E  E  E  E  E   
--------------------------|-------------------------|--------------------------|
--------------------------|-------------------------|--------------------------|
--------------------------|-------------------------|--------------------------|
--4--4--4--4--4--4--4--4--|--4--4--4--4--4--0--2----|--4--4--4--4--4--4--4--4--|


  E  E  E  E  E  E  Q       E  E  E  E  E  E  E  E     E  E  E  E  E  E  Q     
-------------------------|--------------------------|-------------------------|
-------------------------|--------------------------|-------------------------|
--------------------4----|--------------------------|-------------------------|
--4--4--4--4--4--4-------|--4--4--4--4--4--4--4--4--|--4--4--4--4--4--0--2----|


  E  E  E  E  E  E  E  E     E  E  E  E  E  E  Q       E  E  E  E  E  E  E  E   
--------------------------|-------------------------|--------------------------|
--------------------------|-------------------------|--------------------------|
--------------------------|--------------------4----|--------------------------|
--4--4--4--4--4--4--4--4--|--4--4--4--4--4--4-------|--4--4--4--4--4--4--4--4--|


                            Bridge 2                                            
  E  E  E  E  Q    Q        Q    E  E  Q    Q       Q    E  E  Q    Q     
------------------------||-----------------------|-----------------------|
------------------------||-----------------------|-----------------------|
-------------------2----||--4---------------4----|--2---------------2----|
--4--4--4--4--2---------||----------4--4---------|----------2--2---------|


  Q    E  E  E  E  E  E     E  E  E  E  E  E  E  E      Q    E  E  Q    Q     
-------------------------|---------------------------|-----------------------|
-------------------------|---------------------------|-----------------------|
--4----4-----------------|---------------------------|--4---------------4----|
----------4--4--4--5--7--|--L--5--7--5--7--5--7--5\--|----------4--4---------|


  Q    E  E  Q    Q       Q    E  E  E  E  E  E     E  E  E  E  E  E  E.  S  
-----------------------|-------------------------|--------------------------|
-----------------------|-------------------------|--------------------------|
--2---------------2----|--4----4-----------------|------------------------4-|
----------2--2---------|----------4--4--2--4--5--|--L--4--5--4--5--4--5-----|


  E  E  E.  S E  E  E.  S    E  E  E.  S E  E  E  E    
--------------------------|---------------------------|
--------------------------|---------------------------|
--6--6------4-6--6------4-|--6--6------4-6------------|
--------------------------|-----------------4--L--L\--|


  E  E  E.  S E  E  E.  S    E  E  E.  S E  E  E  E    
--------------------------|---------------------------|
--------------------------|---------------------------|
--6--6------4-6--6------4-|--6--6------4-6------------|
--------------------------|-----------------4--L--L\--|


  E  E  E.  S E  E  E.  S    E  E  E.  S E  E  E  E    
--------------------------|---------------------------|
--------------------------|---------------------------|
--6--6------4-6--6------4-|--6--6------4-6------------|
--------------------------|-----------------4--L--L\--|


  E  E  E.  S E  E  E.  S    E  E  E.  S E  E  E  E   
--------------------------|--------------------------||
--------------------------|--------------------------||
--6--6------4-6--6------4-|--6--6------4-6--2--L--2--||
--------------------------|--------------------------||


  Outro                                                   
  E  E  E  E  E  E  E  E     E  E  E  E  E  E  E  E   
--------------------------|--------------------------|
--------------------------|--------------------------|
--------------------------|--------------------------|
--4--4--4--4--4--4--4--4--|--4--4--4--4--0--0--2--2--|


  E  E  E  E  E  E  E  E     E  E  E  E  E  E  E  E     H        H         
--------------------------|--------------------------|--------------------|
--------------------------|--------------------------|--------------------|
--------------------------|--------------------------|--------------------|
--4--4--4--4--4--4--4--4--|--4--4--4--4--0--0--2--2--|--4--------2--------|


  H        Q.     E      W                   H.           E  E   
----------------------|-------------------|---------------------|
----------------------|-------------------|---------------------|
-----------6------LS--|--4----------------|--L------------------|
--0-------------------|-------------------|---------------0--5--|


  Q    Q    H          
---------------------||
---------------------||
---------------------||
--4------------------||


Duration Legend
---------------
W - whole
H - half
Q - quarter
E - 8th
S - 16th
. - note dotted

Tablature Legend
----------------
L - tied note
h - hammer on
p - pull off
S - shift slide
s - legato slide
/ -  slide into from below or out of upwards
\ -  slide into from above or out of downwards

Get my other tabs for Guitar Pro, Powertab, guitar/bass text and chords at
http://profile.ultimate-guitar.com/TexasFury/contributions/

            
            
Suggest correction
Creating personal tab
Creating personal tab
You can edit any tab online and save it as your Personal.

You can edit, replace or remove any tab part or add personal notes – all changes will be seen only by you.

Personal tabs can be accessed anytime from any device, even offline.
Learn more »
Give kudos to tab author, rate the tab!
1 2 3 4 5
comments
print report bad tab
1 comment total.
0 reply
stevmat43 10 Jul 19, 2013 03:25 PM

good tab!! Bob Daisley rocks!

guest
You may want to rate the tab now too:
select rating
Wanna post a correction for this tab? Suggest correction