Oops, an error
Loading. Please wait.

Perry Mason Bass Tab

version 2
version 2

Whole song

Interactive

11,692 views 9 this week
3 commentsread comments
1 2 3 4 5
2 more votes to show rating
add to favorites
launch autoscroll
font size
0
reset
guitar tuner
Autoscroll
slow
fast
+/-
esc
set tempo
stop
Help us to improve Ultimate-Guitar.com Take our survey!
×
Author
Difficulty
intermediate
please rate

|------------------|
|*----------------*|
|*---R--E--S--T---*|
|------------------|

 (:24)    x2
|---------------2-|1-0-------------|------2-1-0-----|--------------2-|
|*----------------|----3-2---------|------------3-2-|----------------|
|*5-0-3-5-0-3-5---|--------5-0-3-5-|0-3-5-----------|5-0-3-5-0-3-5---|
|-----------------|----------------|----------------|----------------|

|1-0-------------|------2-1-0------|
|----3-2---------|------------3-2-*|
|--------5-0-3-5-|0-3-5-----------*|
|----------------|-----------------|

 (:41)
|----------3-----|3-----5--0-5----|------2---------|---------2-1-0--|
|------1-3---1-3-|--1-3-----------|--1------1------|---------------3|
|1---------------|----------------|0---0------5-0-3|-5-0-3-5--------|
|----------------|----------------|----------------|----------------|

|----------------|2-1-0----------3|----3-----3-----|--5---5---------|
|2---------------|------3-2----3--|--3---1-3---1-3-|----2----2------|
|--5-0-3-5-0-3-5-|----------1-----|----------------|3---------------|
|----------------|----------------|----------------|-----------7---7|

 (:57),(2:12)
|----------------|----------------|----------------|----------------|
|*-------3h5-----|6-5-3-5-3------3|h5-----6-5-3----|------3h5-----6-|
|*--5--5-----5-5-|----------5--5--|---5-5----------|-5--5-----5-5---|
|----------------|----------------|----------------|----------------|

                              "On his way to dinner"
                                               "when it took him by . ."
|----------------|----------------|----------------|----------------|
|5-3-5-3------3h5|-----6-5-3------|---3h5-----6-5-3|-5-3------3h5---|
|--------5--5----|-5-5-----------5|-5-----5-5------|-----5--5-----5-|
|----------------|----------------|----------------|----------------|

". .surprise"              "he would vanish overnight"
      "And with one pull of the trigger"                   "Dancing by . ."
|----------------|----------------|----------------|----------------|
|----------------|-3h5-----6-5-3-5|-3------3h5-----|---------------3|
|5-----------5--5|-----5-5--------|---5--5-----5-5-|----------5--5--|
|--6-5-3---------|----------------|----------------|6-5-3-----------|

         "holding on for dear life"                      "made a widow . ."
". .the roadside"                 "then a gun from out of nowhere"
|----------------|----------------|----------------|----------------|
|h5-----6-5-3-5-3|------3h5-------|-------------3h5|-----6-5-3-5-3--|
|---5-5----------|-5--5-----5-5---|--------5--5----|-5-5-----------5|
|----------------|--------------6-|5-3-------------|----------------|

". .of his wife"                   "I don't mind"
|----------------|----------------|----------------|----------------| 
|----3h5---------|------5-5-5-5-3-|----------------|--------------3-|
|--5-----5-5-----|----------------|5-x-x-x-x-x-5---|--5-------3-5---|
|------------6-5-|3---------------|----------------|------5-7-------|

           "Single file down the runway"
|----------------|----------------|----------------|----------------| 
|5-3-5-5-5-5-3-5-|--------3-------|------------3---|--5-5-5-5-3-5---|
|----------------|-----------5----|7-------3-5---5-|5---------------|
|----------------|----------------|----5-7---------|----------------|

"feelin' fine"           "and I'll see you my friend"      "over and . ."
|----------------|----------------|------5-----5---|----------------|
|------3---------|----------3-5-7-|--------5-----5-|--7-5-3---------|
|---------5-5--5-|------3-5-------|3---3-----3-----|3---------------|
|----------------|--5-7-----------|----------------|--------5-3-4-5-|

". .over again"  "who can we get on the case?"           "we need . ."
|----------------|--------------2-|1-0-------------|------2-1-0-----|
|----------------|----------------|----3-2---------|------------3-2-|
|----------------|5-0-3-5-0-3-5---|--------5-0-3-5-|0-3-5-----------|
|3-4-5-6-5-3-5-3-|----------------|----------------|----------------|

"per . . .  ry . .      . .ma . .   . .son"       "someone to put you . ."
|----------3-----|3---------------|----------------|--------------2-|
|------1-3---1-3-|--3-------------|--------7-5-----|----------------|
|1---------------|----1-3-3-3-3---|--0---------7---|5-0-3-5-0-3-5---|
|----------------|----------------|----------------|----------------|

". .in place"          "calling    per . . .    ry . .      . .ma . ."
|1-0-------------|------2-1-0-----|----------3-----|3----------5----|
|----3-2---------|------------3-2-|------1-3---1-3-|--3-------------|
|--------5-0-3-5-|0-3-5-----------|1---------------|----1-3--3------|
|----------------|----------------|----------------|----------------|

". .son"  "again"                                          "again"
 1.____________________________________________________________
|----------------|----------------|----------------|-----------|
|------7-5-------|---3h5-----6-5-3|-5-3------3h5---|--6-5-3---*|
|0-0-0-----7---5-|-5-----5-5------|-----5--5-----5-|5---------*|
|----------------|----------------|----------------|-----------|

lyrics 2nd time around:
"riding painted horses, o the kids they love it so
you can see it on their faces, how they love the wind to blow
minded my own business, like my momma always said
but if i don't try to help'em they could wind up on the front page

I don't mind, draw the line then draw me an arrow
Feelin' fine, then I'll see you my friend
Over and over again

Who can we get on the case?
We need Perry Mason
Someone to put you in place
Calling Perry Mason again"

            "again"                           "a-a-again"
 2.____________________________________________________________
|----------------|----------------|----------------|----------------|
|------7-5-------|----------------|----------------|----------------|
|0-0-0-----7--1--|----------------|--------0-------|-1--------------|
|----------------|------3--------2|----------------|----------3-----|

                                       "tell me it's alright"
                    "wake me when it's over"               "just keep . ."
|----------------|----------------|-3--------------|----------------|
|----------------|----------1-3---|----------------|-----2----------|
|----------------|-----1--------1-|---0------------|----------------|
|---2--------2--3|--5-------------|-------5----5-3-|2--------3------|

         "i've been doing this all night"        "tell me it'll be al-. ."
". .on talking baby"          "how much did you give me?"
|----------------|----7-----------|--------3-------|----------------|
|----------------|-7--------------|------3---3-0---|----------------|
|----------7--5-5|------3--------1|---1------------|5---5---2-------|
|---7--10--------|----------------|----------------|----------------|

". .right"
(3:52)              |-3-|                        |-3-|
|--------------2-|1-0h1p0-------------|------2-1-0h1p0-----|
|----------------|--------3-2---------|----------------3-2-|
|5-0-3-5-0-3-5---|------------5-0-3-5-|0-3-5---------------|
|----------------|--------------------|--------------------|
                    |-3-|
|--------------2-|1-0h1p0-------------|----------------|----------------|
|----------------|--------3-2---------|----------------|-----3---5---7--|
|5-0-3-5-0-3-5---|------------5-0-3-5-|0-3-5-----------|5--5---5---5---5|
|----------------|--------------------|----------------|----------------|

|---5------------|----------------|----------------|-----------2---2|
|-----7------3---|5---3-----------|---0-1-0-0-1-3-0|-3-0------------|
|-5-----5--5---5-|--5---5-3---3-1-|-1--------------|-----3-3-3---3--|
|----------------|----------7-----|----------------|----------------|

|----------------|----------------|5---------------|---5-7-5--------|
|-------3-5-7----|--3---5---7-----|--7--------3-5-5|h7-------5------|
|-----3-------5--|5---5---5---5-5-|----5--5-5------|-----------1--1-|
|-5-7------------|----------------|----------------|----------------|

|----------------|----------------|----------------|----------------|
|0-1-0-0-1-3-0-3-|0---------------|----3-5-7-------|--------3-------|
|----------------|--3-3-3-3-3-3---|3-5-------1---1-|0-3---3---5---5-|
|----------------|--------------7-|----------------|----------------|

|----------------|----------------|----------------|----------------|
|-----3----------|-----------2-3-5|----------------|----------------|
|--5----5-3-5-1--|-1-0-1-3--------|-5--5-5-5-5-5-5-|5-3-5-3-1---1-0-|
|----------------|----------------|----------------|----------------|

                         "and I'll see you my friend"     "over and . ."
|----------------|----------------|-----5-----5----|----------------|
|----------------|----------------|-------5-----5--|-7-5-3----------|
|1-3---3-----5--5|-5-5-5-5-5-5-3--|-3-------3-----3|----------------|
|--------5-7-----|---------------7|----------------|-------5-3-4-5-3|


". .over again" "who can we get on the case?"           "we need per . ."
|----------------|-------------2-1|-0--------------|-----2-1-0------|
|----------------|----------------|---3-2----------|-----------3-2--|
|---------------5|-0-3-5-0-3-5----|-------5-0-3-5-0|-3-5-----------1|
|-4-5-6-5-3-5-3--|----------------|----------------|----------------|

       ". .ry . .     . .ma . .     . .son"     "someone to put you . ."
|---------3-----3|----------------|----------------|-------------2-1|
|-----1-3---1-3--|-3--------------|-------7-5------|----------------|
|----------------|---1-3-3-3-3----|-0---------7---5|-0-3-5-0-3-5----|
|----------------|----------------|----------------|----------------|

". .in place"         "calling per . .    . .ry . .    . .mas . ."
|-0--------------|-----2-1-0------|---------3-----3|----------------|
|---3-2----------|-----------3-2--|-----1-3---1-3--|-3--------5-----|
|-------5-0-3-5-0|-3-5-----------1|----------------|---1-3--3------0|
|----------------|----------------|----------------|----------------|

". .on"   "again"                                "again"
|----------------|----------------|----------------|----------------|
|-----7-5--------|-3---------5----|-----3-----5----|-----------3----|
|-0-0-----7-5-3-5|-----5-3-5-----5|-3-5-----5---5--|-----5-3-5-----5|
|----------------|----------------|---------------6|--5-------------|

                           "again"                              "a-a-. ."
|----------------|----------------|----------------|----------------|
|-----5---------3|-----5----------|-----3---------5|---------3-----5|
|-3-5-----5-3-5--|---5---5-------5|-3-5-----5-3-5--|---5-3-5-----5--|
|----------------|---------6--5---|----------------|----------------|

". .again"
|----------------|----------------|----------------|----------------|
|---------------3|---------5------|---3------------|---------3------|
|-5-------5-3-5--|---5-3-5-----5-3|-5-----5--------|---5-3-5-----5-3|
|---6--5---------|----------------|----------------|----------------|

|----------------|----------------|----------------|----------------|
|---5---------3--|---5------------|---3---------5--|-------3-----5--|
|-5-----5-3-5----|-5---5-------5-3|-5-----5-3-5----|-5-3-5-----5---5|
|----------------|-------6--5-----|----------------|----------------|

|----------------|----------------|----------------|----------------|
|-------------3--|-------5--------|-3-----5--------|-------3--------|
|-------5-3-5----|-5-3-5-----5-3-5|-----5---5------|-5-3-5-----5-3-5|
|-6--5-----------|----------------|-----------6--5-|----------------|

|----------------|----------------|
|-5---------3----|----------------|
|-----5-3-5-----5|----------------|
|----------------|----------------|

Suggest correction
Give kudos to tab author, rate the tab!
1 2 3 4 5
comments
print report bad tab
3 comments total.
0 reply
Basisti 10 Sep 26, 2007 08:28 AM

Wrong key!!!

0 reply
wesfield 209 Mar 21, 2008 06:24 PM

I think it shud b tuned in flats.

0 reply
FLBatista 1,368 Oct 09, 2016 02:58 PM

It's correct, but he forget the tunning. If you play Drop C# (C#,G#,C#,F#) it's right

guest
You may want to rate the tab now too:
select rating
Wanna post a correction for this tab? Suggest correction