Oops, an error
Loading. Please wait.

Revelation Mother Earth tab

version 3
version 3

Whole song

Interactive

5,843 views 1 this week
1 commentread comment
1 2 3 4 5
x 4
add to favorites
×
Save as Personal and add changes to this tab that will be seen only by you. Learn more ›
×
You can save this tab as Personal to edit and correct it or add notes. All changes will be seen only by you. Learn more »
launch autoscroll
font size
0
reset
how to read this tab
guitar tuner
edit
Autoscroll
slow
fast
+/-
esc
set tempo
stop
Title: Revelation (Mother Earth)
Artist: Ozzy Osbourne
Album: Blizzard of Ozz
Year: 1980
Tabbed By: Handle
Email: ch153now@yahoo.com

Please rate and comment on what you think of this tab!



Key:
/    = Slide Up
\    = Slide Down 
h    = Hammer-On
p    = Pull-Off
b    = Bend
Tr   = Trill
p.m. = Palm Mute
X\   = Pick Scrape
~    = Vibrato
X    = Mute Open String 



All strings need to be tuned flat.
Eb Ab Db Gb Bb Eb

Each section of the song is given. You'll have to listen to the song
and see which sections you would have to go back and repeat.



1. Intro   bpm =76


E|-----3------2------0--2------------------3------2------0--2-------------|
B|---0------0------0----------0-1-0------0------0------0----------1---0---|
G|-3------0------0---------------------3------0------0--------------2-----|
D|-------------------------1---------1--------------------------1---------|
A|------------------------------------------------------------------------|
E|------------------------------------------------------------------------|


E|--------3------2------0---7------5------0---0-------2-------0---2-------|
B|------0------0------0-----8------7--------3-------3-------3-------------|
G|----3------0------0------------0------0---------2-----------------------|
D|--1--------------------------0------0-------------------0---------------|
A|------------------------------------------------------------------------|
E|------------------------------------------------------------------------|


E|---------------------------------------0-----------0--------0-----------|
B|-----1---0-----0---7---5---0---4---5-----5-------5--------5-----------0-|
G|-------2-----3-----4---4---0---0---0-------0---0--------0----------3----|
D|---1-------1-------7---5---4---4---5---------4--------5---------2-------|
A|-----------------------3---2--------------------------------------------|
E|------------------------------------------------------------------------|



2. Verses

E|---7--7--6--7---------7--7--5--3--5---------|
B|---8--8--7-----10--8--8-----7--5--7-------0-|
G|---------------------------------------3----| 2X
D|--------------------------------------------|
A|--------------------------------------------|
E|--------------------------------------------|


E|------0-------------7---0---0---------------|
B|------8----7---7h8------8---7---------------|
G|-------------9------------------------------|
D|--------------------------------------------|
A|--------------------------------------------|
E|---0-----------------------------1/7--------|


3. Bridge

Let open strings ring throughout
E|-------0---------------0-----------------------------------|
B|---------------0---------------0---------------------------|
G|----------------------------------------------1------------|
D|---------------------------------------3---3---------------|
A|-----------------------------------0---1-------------------|
E|---0-------0-------0-------0------------------------1/7----|


E|-------0---------------0---------------------------------------------|
B|---------------0---------------0--------------------1----------------|
G|----------------------------------------------1----------------------|
D|---------------------------------------3---3-----3-----3-------------|
A|-----------------------------------0---1-----------------------------|
E|---0-------0-------0-------0-------------------------------1--1/7----|


E|-------0---------------0---------------------------------------------|
B|---------------0----------------0----------------1-----1-------------|
G|-------------------------------------------------------1-------------|
D|----------------------------------------3------3---3-----------------|
A|------------------------------------0---1---1------------------------|
E|---0-------0-------0--------0-------------------------------1/7------|

                                                               
E|-------0---------------0---------------------------------------------|
B|---------------0-------------------0----------1-----1----------------|
G|------------------------------------------------1-----1--------------|
D|-------------------------------------------3------3-----3------------|
A|-------------------------------7-------0---1--------------1----------|
E|---0-------0-------0-----------0------------------------------X\-----|

4.

                                   let ring
E|-----------------------------------------3------------------------------|
B|-------------------------------------5----------------------------------|
G|-----------------------------------3---3--------------------------------|
D|------9\-----3-----------------3h5---------------9\-----3---------------|
A|------7\-----1-----------------------------------7\-----1---------------|
E|---0------0-----1--2~~~--2~~~-----------------0------0-----1--2b-(3)2~~-|

       let ring                                    let ring
E|-------------3-------------------------------------------3--------------|
B|---------5-------------------------------------------5------------------|
G|-------3---3---------------------------------------3---3----------------|
D|---3h5---------------9\-----3------------------3h5----------5--4--------|
A|---------------------7\-----1-------------------------------3--2--------|
E|------------------0------0-----1--2b-(3)2~~~~--------------------3--2-0-|


E|---7------------7--7-------------------|
B|-----8---7---7--8------8--7-----7--8---|
G|-------9---9-----------------9---------|
D|---------------------------------------|
A|---------------------------------------|
E|---------------------------------------|


5. 1st Interlude

E|-------3--2-----------------8-------------------------------------------|
B|-----5---------5/---------7---7-------------------10---12-----12--------|
G|---4---------4----------8-------8----------11----------12--------12-----|
D|----------------------7-----------7/----12----12-------12--12-------12--|
A|-------------------------------------------------------10---------------|
E|------------------------------------------------------------------------|


E|------------------------------------------------------------------------|
B|--------8---------8----------7---------------------8---------8---8------|
G|----------9-----9--------9-----9----8---8--9---11-----11-11----9---7----|
D|-----7-----------------7---7-----7----9---------------------------------|
A|---7---------7----------------------------------------------------------|
E|------------------------------------------------------------------------|

6. 2nd Interlude (just repeat 1st interlude)


7.
                                    p.m. 
E|--------------------------------------------3---|
B|----------------------------------------5-------|
G|--------------------------------------3---3-----| 2X
D|------9\-----3------------------X-3-5-----------|
A|------7\-----1----------------------------------|
E|---0------0-----1--2~~~~--2~~~------------------|

                    let ring
E|--------------------------3--------------------------|
B|----------------------5------------------------------|
G|--------------------3---3----------------------------|
D|----------------3h5-------------5---4----------------|
A|--------------------------------3---2----------------|
E|---2b-(3)2~~~----------------------------3~~~--2~~---|


8. Faster bpm =152

     p.m.------------    p.m.---         Tr      p.m.--------     p.m.
E|--------------------3----------------------------------------3-------2--|
B|--------------------5----------------------------------------5-------4--|
G|--------------------3----------------------------------------3-------2--|
D|--------------------5-----------------4h5--------------------5-------4--|
A|--------------------------------4h5h7------7----------------------------|
E|---0-0-0-0-0-0-0-0-----0-0-0-0-------------0--0-0-0-0-0-0-0-----0-0-----|

                       p.m.--------      p.m.--          Tr
E|------------------------------------3------------------------------|
B|------------------------------------5------------------------------|
G|---4h5---5--------------------------3------------------------------|
D|-------7---7p5p4--------------------5-----------------4h5----------|
A|------------------7-----------------------------4h5h7---------7----|
E|------------------0--0-0-0-0-0-0-0-----0-0-0-0----------------0----|

     p.m.--------      p.m.             Tr   Tr    Tr    Tr    Tr     Tr
E|------------------3-------2---------------------------------------------|
B|------------------5-------4---------------------------------------12h13-|
G|------------------3-------2---------------------------8h9--11h12--------|
D|------------------5-------4---------------------9h10--------------------|
A|--------------------------2----------6h7--9h10--------------------------|
E|---0-0-0-0-0-0-0-----0-0-------12\0-------------------------------------|

       Tr     Tr     Tr     Tr     Tr
E|---11h12--12h14--14h15--15h17--17h19--19h20-19---17-19-15-19-14-19------|
B|--------------------------------------------------------------------17\-|
G|------------------------------------------------------------------------|
D|------------------------------------------------------------------------|
A|------------------------------------------------------------------------|
E|------------------------------------------------------------------------|

9. Guitar Solo


E|-------7--8--7h8p7------7--10--8--7--8p7------7-------------------------|
B|-----8--------------10--------------------10-----10--8p7----------------|
G|---9------------------------------------------------------9--8~~~/14~~~-|
D|------------------------------------------------------------------------|
A|------------------------------------------------------------------------|
E|------------------------------------------------------------------------|


E|----------------20-20-19~~~--19--22p20p19------19-----------------------|
B|-------------------------------------------22------22p20p19-------------|
G|------------------------------------------------------------21-16h17p17-|
D|---/20-20--20-----------------------------------------------------------|
A|------------------------------------------------------------------------|
E|------------------------------------------------------------------------|


E|------------------------------------------------------------------------|
B|------------------------------------------------------------------------|
G|-------16---------------------------------------------------------------|
D|---19------19p17p16\14h15p14------14----------------14------------------|
A|------------------------------17------17--14h15h17------17-15-14-----14-|
E|------------------------------------------------------------------17----|


E|------------------------------------------------------------------|
B|------------------------------------------------------------------|
G|---------------------------------------------------------X---X----|
D|---------------------------------------------------------X---X----|
A|------------------------------14--------------------X-------------|
E|---17--15--14~~~~~--14h15h17------17--15--14~~~~~---X-------------|


E|---12h13h15p13p12------12-----------------------------------------------|
B|-------------------15------15p13p12------12-------------------12h13h15--|
G|-------------------------------------14------14p12\11--12/14------------|
D|------------------------------------------------------------------------|
A|------------------------------------------------------------------------|
E|------------------------------------------------------------------------|


E|------0--12-0-0-0-10-0-0-0-8-0-0-0-7-0-0-0-----|
B|---X-------------------------------------------|
G|-----------------------------------------------|
D|-----------------------------------------------|
A|-----------------------------------------------|
E|-----------------------------------------------|


E|---5h7p5---5------------------------------------------------------------|
B|---------8---8p6p5---5--------------------------------------------------|
G|-------------------7---7p5\4h5p4----------4~~~~-------------------------|
D|---------------------------------7p4h5h7---------7--5--4~~~~------------|
A|--------------------------------------------------------------7~~~~~----|
E|------------------------------------------------------------------------|

          Tr            Tr            Tr
E|-------------------------------------------------------------|
B|-------------------------------------------------------------|
G|---------------------4h5-------------------------------------|
D|-------4h5-------4h5---------------4h5----------4h5--4-------|
A|---5h7-------7\-----------7\---5h7--------6--7----------7----|
E|-------------------------------------------------------------|


10. Outro


E|-----------------------------------------------------------------|
B|-----------------------------------------------------------------|
G|-----------------------------------------------------------------|
D|----------4--5--4~~~~---4-5---7--5~~~---5/9--9h10--9~~/13~~~~~---|
A|---7~~~~---------------------------------------------------------|
E|-----------------------------------------------------------------|

               p.m.
E|------------------------------------------------------------------14b-(17)----|
B|------------------------------------------------------------------------------|
G|------------------------------------------------------------------------------|
D|--------------4--5---4~~~~---4--5---7---5~~~~---5/9--9h10--9~~~/13------------|
A|---7~~~~~--7------------------------------------------------------------------|
E|------------------------------------------------------------------------------|


                                     dive w/ whammy bar-----------------
E|------------------------------------------------------------------------|
B|------------------------------------------------------------------------|
G|------------------------------------------------------------------------|
D|---4----5----6---7------8---9-------------------------------------------|
A|---2----3----4---5------6---7-------------------------------------------|
E|------------------------------------0-----------------------------------|




                                       R.I.P  Randy Rhoads





            
            
Suggest correction
Creating personal tab
Creating personal tab
You can edit any tab online and save it as your Personal.

You can edit, replace or remove any tab part or add personal notes – all changes will be seen only by you.

Personal tabs can be accessed anytime from any device, even offline.
Learn more »
comments
print report bad tab
1 comment total.
+1 reply
kellogg777 10 Apr 11, 2009 02:42 PM

Excellent work, handle, I tested your work and it seems pretty accurate!

guest
You may want to rate the tab now too:
select rating
Wanna post a correction for this tab? Suggest correction