Oops, an error
Loading. Please wait.

The Almighty Dollar Tab

4,988 views 6 this week
1 commentread comment
1 2 3 4 5
x 3
add to favorites
×
Save as Personal and add changes to this tab that will be seen only by you. Learn more ›
launch autoscroll
font size
0
reset
how to read this tab
guitar tuner
Autoscroll
slow
fast
+/-
esc
set tempo
stop
this is my first time writing a tab, so it won't be perfect.I'm pretty sure by listening 
the song, when you have your low E string perfectly tuned, you tune that string one 
higher, and tune the rest of the strings from that.

e|-------------------------------------------------------------|
B|-------------------------------------------------------------|
G|---------------------repeat this---then----------------------|
D|---------------------three times-----------------------------|
A|----------------------------------------------------5-6-7----|
E|---0-0-3-2-0-3-2-3-2-0-5-6-5-6------------0-0-3-2-0-3-4-5----|


e|--------------|
B|--------------|This is a little thing
G|--------------|right before the words
D|---2-2-2-2-2--|"it's in the life that
A|--------------|we lead".
E|--------------|

e|--------------------------------------------------------------|
B|--------------------------------------------------------------|
G|--------------------------------------------------------------|
D|--------------------------------------------------------------|
A|--14-12-20-12-19-18-17-12-14-12-20-12-19-18-17-12-14-12-20-12-|
E|--12-10-18-10-17-16-15-10-12-10-18-10-17-16-15-10-12-10-18-10-|

e|-------------------------------------------------------------|
B|-------------------------------------------------------------|
G|-------------------------------------------------------------|
D|-------------------------------------------------------------|
A|--19-18-17-12-14-12-20-12-19-18-17-12-14-12-20-12-19-19-18---|
E|--17-16-15-10-12-10-18-10-17-16-15-14-12-10-18-10-17-17-16---|

e|--------------|------------------------|---------------------|
B|--------------|------------------------|---------------------|
G|--------------|------------------------|---------------------|
D|--------------|------------------------|---------------------|
A|--18-17-17-12-|-14-14-14-14-14-14-14-14|13-13-13-13-13-13-13-|
E|--16-15-15-10-|-12-12-12-12-12-12-12-12|11-11-11-11-11-11-11-|

e|----|-----------------------|-----------|--------------------|
B|----|-----------------------|-----------|--------------------|
G|----|-----------------------|-----------|--------------------|
D|----|-----------------------|-----------|--------------------|
A|--13|12-12-12-12-12-12-12-12|11-11-11-11|--------------------|
E|--11|10-10-10-10-10-10-10-10|-9--9--9--9|-3-2-0-3-2-3-2-0----|

e|-------------------------|-----------------------|------------|
B|-------------------------|-----------------------|------------|
G|-------------------------|-----------------------|------------|
D|-------------------------|-----------------------|------------|
A|--14-14-14-14-14-14-14-14|13-13-13-13-13-13-13-13|12-12-12-12-|
E|--12-12-12-12-12-12-12-12|11-11-11-11-11-11-11-11|10-10-10-10-|

e|-------------|-----------|-----|---|-------------|-----|------|
B|-------------|-----------|-----|---|-------------|-----|------|
G|-------------|-----------|-----|---|2-2-0-2-3-2-0|-----|------|
D|-------------|-----------|-----|---|-------------|-----|2-2-0-|
A|--12-12-12-12|11-11-11-11|7-6-5|8-7|-------------|5-8-7|------|
E|--10-10-10-10|-9--9--9--9|5-4-3|6-5|-------------|3-6-5|------|

e|---------|-------|--------------|----------------------------|
B|---------|-------|--------------|----------------------------|
G|---------|----make sure to stop-|----------------------------|
D|--2-3-2-0|----right away!-------|----------------------------|
A|---------|5-8-7-6|--------------|----------------------------|
E|---------|3-6-5-4|--------------|----------------------------|

e|-----------------------------|---------------|---------------|
B|-----------------------------|---------------|---------------|
G|------play three times then--|---------------|---------------|
D|-----------------------------|---------------|---------------|
A|-----------------------------|----------5-6-7|14-12-20-12-19-|
E|--0-0-3-2-0-3-2-3-2-0-5-6-5-6|0-0-3-2-0-3-4-5|12-10-18-10-17-|

e|--------------------------------------------------------------|
B|--------------------------------------------------------------|
G|--------------------------------------------------------------|
D|--------------------------------------------------------------|
A|--18-17-12-14-12-20-12-19-18-17-12-14-12-20-12-19-18-17-12-14-|
E|--16-15-10-12-10-18-10-17-16-15-10-12-10-18-10-17-16-15-10-12-|

e|--------------------------------------------------------------|
B|--------------------------------------------------------------|
G|--------------------------------------------------------------|
D|--------------------------------------------------------------|
A|--12-20-12-19-18-17-12-14-12-20-12-19-18-17-12-14-12-20-12-19-|
E|--10-18-10-17-16-15-10-12-10-18-10-17-16-15-10-12-10-18-10-17-|

e|--------------------------------------------------------------|
B|--------------------------------------------------------------|
G|--------------------------------------------------------------|
D|--------------------------------------------------------------|
A|--18-17-12-14-12-20-12-19-18-17-12-14-12-20-12-19-19-18-18-17-|
E|--16-15-10-12-10-18-10-17-16-15-10-12-10-18-10-17-17-16-16-15-|

e|-------|-----------------------|-----------------------|------|
B|-------|-----------------------|-----------------------|------|
G|-------|-----------------------|-----------------------|------|
D|-------|-----------------------|-----------------------|------|
A|--17-12|14-14-14-14-14-14-14-14|13-13-13-13-13-13-13-13|12-12-|
E|--15-10|12-12-12-12-12-12-12-12|11-11-11-11-11-11-11-11|10-10-|

e|-------------------|-----------|---------------|-------------|
B|-------------------|-----------|---------------|-------------|
G|-------------------|-----------|---------------|-------------|
D|-------------------|-----------|---------------|-------------|
A|--12-12-12-12-12-12|11-11-11-11|---------------|14-14-14-14--|
E|--10-10-10-10-10-10|-9--9--9--9|3-2-0-3-2-3-2-0|12-12-12-12--|

e|-------------|-----------------------|------------------------|
B|-------------|-----------------------|------------------------|
G|-------------|-----------------------|------------------------|
D|-------------|-----------------------|------------------------|
A|--14-14-14-14|13-13-13-13-13-13-13-13|12-12-12-12-12-12-12-12-|
E|--12-12-12-12|11-11-11-11-11-11-11-11|10-10-10-10-10-10-10-10-|

e|-------------|-----|---|-------------|-----|-------------|----|
B|-------------|-----|---|-------------|-----|-------------|----|
G|-------------|-----|---|-------------|-----|-------------|----|
D|-------------|-----|---|2-2-0-2-3-2-0|-----|2-2-0-2-3-2-0|----|
A|--11-11-11-11|7-6-5|8-7|-------------|5-8-7|-------------|5-8-|
E|---9--9--9--9|5-4-3|6-5|-------------|3-6-5|-------------|3-6-|

e|-----|---------------------------|---------------|
B|-----|---------------------------|---------------|
G|-----|---------------------------|---------------|
D|-----|---------------------------|---------------|
A|--7-6|---------------------------|----------5-6-7|
E|--5-4|0-0-3-2-0-3-2-3-2-0-5-6-5-6|0-0-3-2-0-3-4-5|

e|--------------------------------------------------------------|
B|------this part is when the keyboard is playing and repeats---|
G|--------------------a few times-------------------------------|
D|--------------------------------------------------------------|
A|--------------------------------------------------------------|
E|--0-0-11-12-0-0-11-12-0-0-12-13-0-0-12-13-0-0-13-15-0-0-13-15-|

e|--------|-----------------------|----------------------------|
B|--------|---this is my best-----|----------------------------|
G|--------|----guess on this part-|----------------------------|
D|--------|----------2-2----------|----------------------------|
A|--------|-----------------------|----------------------------|
E|--0-0-16|3-2-0-2-0-----0-0------|----------------------------|

 after the keyboard solo comes this:
e|-------|-----|-------|---------------------------------------|
B|-------|-----|-------|---------------------------------------|
G|--9-8-7|-----|-------|---------------------------------------|
D|--7-6-5|9-8-7|-------|---------------------------------------|
A|-------|7-6-5|9-8-7-6|---------------------------------------|
E|-------|-----|7-6-5-4|---------------------------------------|
         somewhere in the quiet part, the background
e|--is very quiet and hard to hear, so you have to play quietly!
B|-----------|-----------|-----------|-----------|-----------|
G|-----------|-----------|-----------|-----------|-----------|
D|--6-6-6-6-6|6-7-7-7-7-7|7-4-4-4-4-4|4-3-3-3-3-3|3-6-6-6-6-6|
A|--4-4-4-4-4|4-5-5-5-5-5|5-2-2-2-2-2|2-1-1-1-1-1|1-4-4-4-4-4|
E|-----------|-----------|-----------|-----------|-----------|

e|-------------|-----------|-----------|-----------------------|
B|-------------|-----------|-----------|-----------------------|
G|-------------|-----------|-----------|-----------------------|
D|--6-7-7-7-7-7|7-4-4-4-4-4|4-3-3-3-3-3|-----------------------|
A|--4-5-5-5-5-5|5-2-2-2-2-2|2-1-1-1-1-1|7-7-5-5-5-17-17-17-17--|
E|-------------|-----------|-----------|5-5-3-3-3-15-15-15-15--|

e|-------------|-----------------------|------------------------|
B|-------------|-----------------------|------------------------|
G|-------------|-----------------------|------------------------|
D|-------------|-----------------------|------------------------|
A|--17-17-17-17|14-14-14-14-14-14-14-14|13-13-13-13-13-13-13-13-|
E|--15-15-15-15|12-12-12-12-12-12-12-12|11-11-11-11-11-11-11-11-|

e|-------------------------|-----------|---------------|-------|
B|-------------------------|-----------|---------------|-------|
G|-------------------------|-----------|---------------|-------|
D|-------------------------|-----------|---------------|-------|
A|--12-12-12-12-12-12-12-12|11-11-11-11|---------------|14-14--|
E|--10-10-10-10-10-10-10-10|-9--9--9--9|3-2-0-3-2-3-2-0|12-12--|

e|-------------------|-----------------------|------------------|
B|-------------------|-----------------------|------------------|
G|-------------------|-----------------------|------------------|
D|-------------------|-----------------------|------------------|
A|--14-14-14-14-14-14|13-13-13-13-13-13-13-13|12-12-12-12-12-12-|
E|--12-12-12-12-12-12|11-11-11-11-11-11-11-11|10-10-10-10-10-10-|

e|-------|-----------|-----|---|-------------|-----|------------|
B|-------|-----------|-----|---|-------------|-----|------------|
G|-------|-----------|-----|---|-------------|-----|------------|
D|-------|-----------|-----|---|2-2-0-2-3-2-0|-----|2-2-0-2-3-2-|
A|--12-12|11-11-11-11|7-6-5|8-7|-------------|5-8-7|------------|
E|--10-10|-9--9--9--9|5-4-3|6-5|-------------|3-6-5|------------|

e|---|-------|-------three times---------|then-----------|-----|
B|---|-------|---------------------------|---------------|-----|
G|---|-------|---------------------------|---------------|-----|
D|--0|-------|---------------------------|---------------|-----|
A|---|5-8-7-6|---------------------------|----------5-6-7|-----|
E|---|3-6-5-4|0-0-3-2-0-3-2-3-2-0-5-6-5-6|0-0-3-2-0-3-4-5|-----|

                        THE END!!!!!!!!!!!!!!!!
This is a really easy song, it looks long, but its not really.
Suggest correction
Give kudos to tab author, rate the tab!
1 2 3 4 5
comments
print report bad tab
1 comment total.
0 reply
ITZanna! 10 Jul 31, 2009 08:20 PM

I'll tell ya, when I wrote this tab i was soooo clueless! If you have a correction to make you go right ahead and make it because I didn't make the best tab. But it does kind of give you an idea of what it really should be :D

guest
You may want to rate the tab now too:
select rating
Wanna post a correction for this tab? Suggest correction