Oops, an error
Loading. Please wait.

Ill Be Missing You Tab

version 3
version 3

Whole song

Interactive

2,060 views 21 this week
no commentswrite comment
1 2 3 4 5
excellent!
x 2
add to favorites
launch autoscroll
font size
0
reset
how to read this tab
guitar tuner
Tab Pro tools
  • play this tab
  • loop segment
  • change instrument
  • show fretboard
  • metronome
Autoscroll
slow
fast
+/-
esc
set tempo
stop
Difficulty
novice
Intro, Versus, repeat twice
--------------------|----------------------|----------------------|-------0--------------|
-----------0--------|----------------------|--------3---1---------|-------------3--------|
-------2-----2---2--|-----------0----------|------0-------0---0---|-----2---------2---2--|
-----0---0-----0----|-------4-----4---4----|----------------------|---0------0------0----|
--------------------|-----2---2-----2------|----3-----3-----3-----|----------------------|
---3----------------|---0------------------|----------------------|----------------------|

        2x                                      2x

--------------------------|
--------------0-----------|
---------2------2-----2---|
------0----0-------0------|
--------------------------|
--3-----------------------|

Chorus: repeat twice
-----------------------------------------------------------------------------------------|
--------0h1-0-----0------------0----------------0h1-0------------------------------------|
--------------2p0----------2-----2---2----------------2p0-0-------------0----------------|
-----0-------------------0---0-----0----------0---------------------4-----4---4----------|
------------------------------------------------------------------2---2-----2------------|
--3-------------------3--------------------3--------------------0------------------------|

-----------------------------------------------------------------------------------------|
---------0---0--0h1-------------------0h1p0----------------------------------------------|
-----0-0------------0------------0-0---------2---------2p0---4--0--0---------------------|
---------------------------------------------------0-------------------------------------|
----------------------------3------------------------------------------------------------|
--0--------------------------------------------------------------------------------------|


Bridge:
---------------------------------0--------------------------0-0----------------------------|
-------------0------3----1----1-----------1---------------------3-----------------0--------|
--------2-------2-------------0------0-------0---0-------0---------2p0---2----2-----2---2--|
-----0----0-------------------2--------2-------2----------------------------0---0-----0----|
------------------------------3------------------------3-----------------------------------|
--3----------------------------------------------------------------------3-----------------|

-----------3p0-3--3p0--3p0---------------------3s5-5------------------------0-------------|
------------------------------------0-----------------5-5b--3-3------------------3--------|
-------------------------------2------2---2------------------------------2----------2---2-|
-------0-------------------------2------2-----------------------------0-------0-------0---|
------------------------------------------------------------------------------------------|
----3-------------------------------------------------------------------------------------|

Chorus:
-----------------------------------------------------------------------------------------|
--------0h1-0-----0------------0----------------0h1-0------------------------------------|
----2---------2p0----------2-----2---2----------------2p0-0-------------0----------------|
--0----------------------0---0-----0----------0---------------------4-----4---4----------|
------------------------------------------------------------------2---2-----2------------|
----------------------3--------------------3--------------------0------------------------|

-----------------------------------------------------------------------------------------|
---------0---0--0h1-------------------0h1p0----------------------------------------------|
-----0-0------------0------------0-0---------2---------2p0---4--0--0---------------------|
---------------------------------------------------0-------------------------------------|
----------------------------3------------------------------------------------------------|
--0--------------------------------------------------------------------------------------|


End:
-------------------------|
-------------------------|
---------------0---------|
----------4------4----4--|    3x
-------2----2------2-----|
---0---------------------|

play slowly this part and end the song
-----------------------------------------------------------------------------------------|
---------0---0--0h1-------------------0h1p0----------------------------------------------|
-----0-0------------0------------0-0---------2---------2p0---4--0--0--------0------------|
---------------------------------------------------0------------------------2--0---------|
----------------------------3-----------------------------------------------3--2---------|
--0-------------------------------------------------------------------------3--3---------|
comments
We did not receive enough feedback on this tab! Please rate:
print report bad tab
1 2 3 4 5
I want to post or [tab]
guest
You may want to rate the tab now too:
select rating
Please do not post tabs as comments. Select "correction" instead!