Oops, an error
Loading. Please wait.

Shadilay tab

version 1
version 1

Whole song

  • Though most of the material here was originally sy... Show more

Interactive

532 views 33 this week
1 commentread comment
1 2 3 4 5
1 last vote to show rating
add to favorites
×
Save as Personal and add changes to this tab that will be seen only by you. Learn more ›
×
You can save this tab as Personal to edit and correct it or add notes. All changes will be seen only by you. Learn more »
launch autoscroll
font size
0
reset
how to read this tab
guitar tuner
edit
Autoscroll
slow
fast
+/-
esc
set tempo
stop
About this tab version
Though most of the material here was originally synth or bass, I've found ways for it to work on guitar. Was this info helpful? Yes No
[Intro]

e|-----------------|----------------|--------------0-|----------------|
B|-5---------------|------5---------|5-----------1---|3-------3-------|
G|-5---------------|5p4---------4---|5---------2-----|0---0-----------|
D|-7---------------|5---------------|7---------------|2---------------|
A|-----------------|----------------|----------------|----------------|
E|-----------------|----------------|----------------|------------0---|

e|-0---------------|-5--3--1--------|5---------------|7---------------|
B|-1---------------|----------5-----|5---------------|9---------------|
G|-2---------------|--------------5-|----------------|----------------|
D|-----------------|----------------|----------------|----------------|
A|-----------------|----------------|----------------|----------------|
E|-----------------|----------------|----------------|----------------|


[Pre-Verse]

e|-----------------------------------|---------------------------------|
B|-13--13-12--13--12--13--12--13-12--|13--13-12--13--12--13--12-13--15-|
G|-----------------------------------|---------------------------------|
D|-----------------------------------|---------------------------------|
A|-----------------------------------|---------------------------------|
E|-----------------------------------|---------------------------------|

e|-----------------------------------|---------------------------------|
B|-15--15-13--15--13--15--13--15-13--|13--13-12--13--12--13--12--13-12-|
G|-----------------------------------|---------------------------------|
D|-----------------------------------|---------------------------------|
A|-----------------------------------|---------------------------------|
E|-----------------------------------|---------------------------------|

e|-0h8-7-5-3h5-12----0h8-7-5-3h5-12----|0h10-0-8-7----0h10-0-8-7----|0h8-7-5-3h5-13-15--|
B|-------------------------------------|----------------------------|-------------------|
G|-------------------------------------|----------------------------|------------10-12--|
D|-------------------------------------|----------------------------|-------------------| x2
A|-------------------------------------|----------------------------|-------------------|
E|-------------------------------------|----------------------------|-------------------|


[Verse]

[Rhythm Gtr.]

P.M. [--------------------------------------------------------------------]
    e|-----------------|----------------|----------------|----------------|
    B|-----------------|----------------|----------------|----------------|
    G|-----------------|7-7-7-7-7--7--7-|----------------|----------------|
    D|-7-7-7-7-7--7--7-|----------7--7--|5-5-5-5-5--5--5-|7-7-7-7-3-3-5-5-|
    A|-----------7--7--|----------------|----------5--5--|----------------|
    E|-----------------|----------------|----------------|----------------|

[Lead Gtr.]

    e|-----------------|----------------|----------------|----------------|
    B|-----------------|------x-x---15*~|~~~-------------|----------------|
    G|-----------------|------x-x---14--|----------------|----------------|
    D|-----------------|------x-x-0*----|----------------|----------------|
    A|-----------------|----------------|----------------|----------------|
    E|-----------------|----------------|----------------|----------------|

    *whammy bar dive


[Rhythm Gtr.]

P.M. [--------------------------------------------------------------------]
    e|-----------------|----------------|----------------|----------------|
    B|-----------------|----------------|----------------|----------------|
    G|-----------------|7-7-7-7-7--7--7-|----------------|----------------|
    D|-7-7-7-7-7--7--7-|----------7--7--|5-5-5-5-5--5--5-|7-7-7-7-3-3-5-5-|
    A|-----------7--7--|----------------|----------5--5--|----------------|
    E|-----------------|----------------|----------------|----------------|

[Lead Gtr.]

    e|-----------------|----------------|----------------|--------13--15--|
    B|-----------------|------x-x---15*~|~~~-------------|--------13--15--|
    G|-----------------|------x-x---14--|----------------|--------10--12--|
    D|-----------------|------x-x-0*----|----------------|----------------|
    A|-----------------|----------------|----------------|----------------|
    E|-----------------|----------------|----------------|----------------|



[Rhythm Gtr.]

P.M. [-------------------------------------------]
    e|-----------------|----------------|--------|
    B|-----------------|----------------|--------|
    G|-----------------|----------------|--------|
    D|-7-7-7-7-7--7--7-|----------------|3-3-5-5-|
    A|-----------7--7--|7-7-7-7-7-7-7-7-|--------|
    E|-----------------|----------------|--------|

[Lead Gtr.]

    e|-----------------|----------------|13--15--|
    B|-----------------|----------------|13--15--|
    G|-----------------|----------------|10--12--|
    D|-----------------|----------------|--------|
    A|-----------------|----------------|--------|
    E|-----------------|----------------|--------|


[Chorus]

[Rhythm Gtr.]

P.M. [--------------------------------------------------------------------]  |
    e|-----------------|----------------|----------------|----------------|  |
    B|-----------------|----------------|----------------|----------------|  |
    G|-5-5-5-5-5--5--5-|----------------|7-7-7-7-7--7--7-|----------------|  | 
    D|-----------5--5--|5-5-5-5-5--5--5-|----------7--7--|7-7-7-7-3-3-5-5-|  |
    A|-----------------|----------5--5--|----------------|----------------|  |
    E|-----------------|----------------|----------------|----------------|  |
                                                                             |
[Lead Gtr.]                                                                  | x2
                                                                             |
    e|-20--------------|------20-19-15--|----------------|----13-15-20-20-|  |
    B|-20--------------|------20-19-15--|----------------|----13-15-20-20-|  |
    G|-17--------------|------17-16-12--|----------------|----10-12-17-17-|  |
    D|-----------------|----------------|----------------|----------------|  |
    A|-----------------|----------------|----------------|----------------|  |
    E|-----------------|----------------|----------------|----------------|  |


[Rhythm Gtr.]

P.M. [---------------------------------------------------]  |
    e|-----------------|----------------|----------------|  |
    B|-----------------|----------------|----------------|  |
    G|-----------------|----------------|----------------|  | 
    D|-3-3-3-3-3--3--3-|5-5-5-5-5--5--5-|7-7-7-7-3-3-5-5-|  |
    A|-----------3--3--|----------5--5--|----------------|  |
    E|-----------------|----------------|----------------|  |
                                                            |
[Lead Gtr.]                                                 | 
                                                            |
    e|-----------------|----------------|----------------|  |
    B|-6<--------------|8<--------------|--------17--15--|  |
    G|-5<--------------|7<--------------|--------16--14--|  |
    D|-3<--------------|5<--------------|--------14--12--|  |
    A|-----------------|----------------|----------------|  |
    E|-----------------|----------------|----------------|  |

"<" notates a volume swell

[Rhythm Gtr.]

P.M. [---------------------------------------------------]  |
    e|-----------------|----------------|----------------|  |
    B|-----------------|----------------|----------------|  |
    G|-----------------|----------------|----------------|  | 
    D|-7-7-7-7-7--7--7-|5-5-5-5-5--5--5-|----------------|  |
    A|-----------7--7--|----------5--5--|7-7-7-7-7-7-7-7-|  |
    E|-----------------|----------------|----------------|  |
                                                            |
[Lead Gtr.]                                                 | 
                                                            |
    e|-----------------|----------------|----------------|  |
    B|-13--------------|----------------|15-17-----------|  |
    G|-12--------------|----------------|14-16-----------|  |
    D|-10--------------|----------------|12-14-----------|  |
    A|-----------------|----------------|----------------|  |
    E|-----------------|----------------|----------------|  |



[Rhythm Gtr.]

P.M. [--------------------------------------------------------------------]  |
    e|-----------------|----------------|----------------|----------------|  |
    B|-----------------|----------------|----------------|----------------|  |
    G|-5-5-5-5-5--5--5-|----------------|7-7-7-7-7--7--7-|----------------|  | 
    D|-----------5--5--|5-5-5-5-5--5--5-|----------7--7--|7-7-7-7-3-3-5-5-|  |
    A|-----------------|----------5--5--|----------------|----------------|  |
    E|-----------------|----------------|----------------|----------------|  |
                                                                             |
[Lead Gtr.]                                                                  | 
                                                                             |
    e|-20--------------|----------------|----------------|17--17--17------|  |
    B|-20--------------|----------------|----------------|17--17--17------|  |
    G|-17--------------|----------------|----------------|14--14--14------|  |
    D|-----------------|----------------|----------------|----------------|  |
    A|-----------------|----------------|----------------|----------------|  |
    E|-----------------|----------------|----------------|----------------|  |


[Rhythm Gtr.]

P.M. [--------------------------------------------------------------------]  |
    e|-----------------|----------------|----------------|----------------|  |
    B|-----------------|----------------|----------------|----------------|  |
    G|-5-5-5-5-5--5--5-|----------------|7-7-7-7-7--7--7-|----------------|  | 
    D|-----------5--5--|5-5-5-5-5--5--5-|----------7--7--|7-7-7-7-3-3-5-5-|  |
    A|-----------------|----------5--5--|----------------|----------------|  |
    E|-----------------|----------------|----------------|----------------|  |
                                                                             |
[Lead Gtr.]                                                                  | 
                                                                             |
    e|-20--------------|----------------|----------------|----------------|  |
    B|-20--------------|----------------|----------------|----------------|  |
    G|-17--------------|----------------|----------------|----------------|  |
    D|-----------------|----------------|----------------|----------------|  |
    A|-----------------|----------------|----------------|----------------|  |
    E|-----------------|----------------|----------------|----------------|  |


[Rhythm Gtr.]

P.M. [---------------------------------------------------]  |
    e|-----------------|----------------|----------------|  |
    B|-----------------|----------------|----------------|  |
    G|-----------------|----------------|----------------|  | 
    D|-3-3-3-3-3--3--3-|5-5-5-5-5--5--5-|7-7-7-7-3-3-5-5-|  |
    A|-----------3--3--|----------5--5--|----------------|  |
    E|-----------------|----------------|----------------|  |
                                                            |
[Lead Gtr.]                                                 | 
                                                            |
    e|-----------------|----------------|----------------|  |
    B|-6<--------------|8<--------------|--------17--15--|  |
    G|-5<--------------|7<--------------|--------16--14--|  |
    D|-3<--------------|5<--------------|--------14--12--|  |
    A|-----------------|----------------|----------------|  |
    E|-----------------|----------------|----------------|  |


[Rhythm Gtr.]

P.M. [---------------------------------------------------]  |
    e|-----------------|----------------|----------------|  |
    B|-----------------|----------------|----------------|  |
    G|-----------------|----------------|----------------|  | 
    D|-7-7-7-7-7--7--7-|5-5-5-5-5--5--5-|----------------|  |
    A|-----------7--7--|----------5--5--|7-7-7-7-7-7-7-7-|  |
    E|-----------------|----------------|----------------|  |
                                                            |
[Lead Gtr.]                                                 | 
                                                            |
    e|-----------------|----------------|----------------|  |
    B|-13-----------13-|15-----------15-|17--------------|  |
    G|-12-----------12-|14-----------14-|16--------------|  |
    D|-10-----------10-|12-----------12-|14--------------|  |
    A|-----------------|----------------|----------------|  |
    E|-----------------|----------------|----------------|  |


[Break]

e|-0h8-7-5-3h5------0h8-7-5-3h5------|0h10-0-8-7----0h10-0-8-7----|0h8-7-5-3h5-13-15--|
B|-----------------------------------|----------------------------|-------------------|
G|-----------------------------------|----------------------------|------------10-12--|
D|-----------------------------------|----------------------------|-------------------| x2
A|-----------------------------------|----------------------------|-------------------|
E|-----------------------------------|----------------------------|-------------------|

[Verse]

[Rhythm Gtr.]

P.M. [--------------------------------------------------------------------]
    e|-----------------|----------------|----------------|----------------|
    B|-----------------|----------------|----------------|----------------|
    G|-----------------|7-7-7-7-7--7--7-|----------------|----------------|
    D|-7-7-7-7-7--7--7-|----------7--7--|5-5-5-5-5--5--5-|7-7-7-7-3-3-5-5-|
    A|-----------7--7--|----------------|----------5--5--|----------------|
    E|-----------------|----------------|----------------|----------------|

[Lead Gtr.]

    e|-----------------|----------------|----------------|----13-15-15-15--|
    B|-----------------|------x-x---15*~|~~~-------------|----13-15-15-15--|
    G|-----------------|------x-x---14--|----------------|----10/12-12-12--|
    D|-----------------|------x-x-0*----|----------------|-----------------|
    A|-----------------|----------------|----------------|-----------------|
    E|-----------------|----------------|----------------|-----------------|



[Rhythm Gtr.]

P.M. [--------------------------------------------------------------------]
    e|-----------------|----------------|----------------|----------------|
    B|-----------------|----------------|----------------|----------------|
    G|-----------------|7-7-7-7-7--7--7-|----------------|----------------|
    D|-7-7-7-7-7--7--7-|----------7--7--|5-5-5-5-5--5--5-|7-7-7-7-3-3-5-5-|
    A|-----------7--7--|----------------|----------5--5--|----------------|
    E|-----------------|----------------|----------------|----------------|

[Lead Gtr.]

    e|-----------------|----------------|----------------|----13-13-13-15--|
    B|-----------------|------x-x---15*~|~~~-------------|----13-13-13-15--|
    G|-----------------|------x-x---14--|----------------|----10-10-10-13--|
    D|-----------------|------x-x-0*----|----------------|-----------------|
    A|-----------------|----------------|----------------|-----------------|
    E|-----------------|----------------|----------------|-----------------|



[Rhythm Gtr.]

P.M. [-------------------------------------------]
    e|-----------------|----------------|--------|
    B|-----------------|----------------|--------|
    G|-----------------|----------------|--------|
    D|-7-7-7-7-7--7--7-|----------------|3-3-5-5-|
    A|-----------7--7--|7-7-7-7-7-7-7-7-|--------|
    E|-----------------|----------------|--------|

[Lead Gtr.]

    e|-----------------|----------------|13--15--|
    B|-----------------|----------------|13--15--|
    G|-----------------|----------------|10--12--|
    D|-----------------|----------------|--------|
    A|-----------------|----------------|--------|
    E|-----------------|----------------|--------|

[Chorus]

[Rhythm Gtr.]

P.M. [--------------------------------------------------------------------]  |
    e|-----------------|----------------|----------------|----------------|  |
    B|-----------------|----------------|----------------|----------------|  |
    G|-5-5-5-5-5--5--5-|----------------|7-7-7-7-7--7--7-|----------------|  | 
    D|-----------5--5--|5-5-5-5-5--5--5-|----------7--7--|7-7-7-7-3-3-5-5-|  |
    A|-----------------|----------5--5--|----------------|----------------|  |
    E|-----------------|----------------|----------------|----------------|  |
                                                                             |
[Lead Gtr.]                                                                  | 
                                                                             |
    e|-20--------------|----------------|----------------|----13-15-20-20-|  |
    B|-20--------------|----------------|----------------|----13-15-20-20-|  |
    G|-17--------------|----------------|----------------|----10-12-17-17-|  |
    D|-----------------|----------------|----------------|----------------|  |
    A|-----------------|----------------|----------------|----------------|  |
    E|-----------------|----------------|----------------|----------------|  |

[Rhythm Gtr.]

P.M. [--------------------------------------------------------------------]  |
    e|-----------------|----------------|----------------|----------------|  |
    B|-----------------|----------------|----------------|----------------|  |
    G|-5-5-5-5-5--5--5-|----------------|7-7-7-7-7--7--7-|----------------|  | 
    D|-----------5--5--|5-5-5-5-5--5--5-|----------7--7--|7-7-7-7-3-3-5-5-|  |
    A|-----------------|----------5--5--|----------------|----------------|  |
    E|-----------------|----------------|----------------|----------------|  |
                                                                             |
[Lead Gtr.]                                                                  | 
                                                                             |
    e|-20--------------|----------------|----------------|----17---20-----|  |
    B|-20--------------|----------------|----------------|----17---20-----|  |
    G|-17--------------|----------------|----------------|----14---17-----|  |
    D|-----------------|----------------|----------------|----------------|  |
    A|-----------------|----------------|----------------|----------------|  |
    E|-----------------|----------------|----------------|----------------|  |

[Rhythm Gtr.]

P.M. [--------------------------------------------------------------------]  |
    e|-----------------|----------------|----------------|----------------|  |
    B|-----------------|----------------|----------------|----------------|  |
    G|-5-5-5-5-5--5--5-|----------------|7-7-7-7-7--7--7-|----------------|  | 
    D|-----------5--5--|5-5-5-5-5--5--5-|----------7--7--|7-7-7-7-3-3-5-5-|  |
    A|-----------------|----------5--5--|----------------|----------------|  |
    E|-----------------|----------------|----------------|----------------|  |
                                                                             |
[Lead Gtr.]                                                                  | 
                                                                             |
    e|-----------------|----------------|----------------|13-15--20-20-20-|  |
    B|-----------------|----------------|----------------|13-15--20-20-20-|  |
    G|-----------------|----------------|----------------|10/12--17-17-17-|  |
    D|-----------------|----------------|----------------|----------------|  |
    A|-----------------|----------------|----------------|----------------|  |
    E|-----------------|----------------|----------------|----------------|  |

[Rhythm Gtr.]

P.M. [--------------------------------------------------------------------]  |
    e|-----------------|----------------|----------------|----------------|  |
    B|-----------------|----------------|----------------|----------------|  |
    G|-5-5-5-5-5--5--5-|----------------|7-7-7-7-7--7--7-|----------------|  | 
    D|-----------5--5--|5-5-5-5-5--5--5-|----------7--7--|7-7-7-7-3-3-5-5-|  |
    A|-----------------|----------5--5--|----------------|----------------|  |
    E|-----------------|----------------|----------------|----------------|  |
                                                                             |
[Lead Gtr.]                                                                  | 
                                                                             |
    e|-----------------|----------------|----------------|----------------|  |
    B|-----------------|----------------|----------------|----------------|  |
    G|-----------------|----------------|----------------|----------------|  |
    D|-----------------|----------------|----------------|----------------|  |
    A|-----------------|----------------|----------------|----------------|  |
    E|-----------------|----------------|----------------|----------------|  |


[Rhythm Gtr.]

P.M. [---------------------------------------------------]  |
    e|-----------------|----------------|----------------|  |
    B|-----------------|----------------|----------------|  |
    G|-----------------|----------------|----------------|  | 
    D|-3-3-3-3-3--3--3-|5-5-5-5-5--5--5-|7-7-7-7-3-3-5-5-|  |
    A|-----------3--3--|----------5--5--|----------------|  |
    E|-----------------|----------------|----------------|  |
                                                            |
[Lead Gtr.]                                                 | 
                                                            |
    e|-----------------|----------------|----------------|  |
    B|-6<--------------|8<--------------|--------17--15--|  |
    G|-5<--------------|7<--------------|--------16--14--|  |
    D|-3<--------------|5<--------------|--------14--12--|  |
    A|-----------------|----------------|----------------|  |
    E|-----------------|----------------|----------------|  |


[Rhythm Gtr.]

P.M. [---------------------------------------------------]  |
    e|-----------------|----------------|----------------|  |
    B|-----------------|----------------|----------------|  |
    G|-----------------|----------------|----------------|  | 
    D|-7-7-7-7-7--7--7-|5-5-5-5-5--5--5-|----------------|  |
    A|-----------7--7--|----------5--5--|7-7-7-7-7-7-7-7-|  |
    E|-----------------|----------------|----------------|  |
                                                            |
[Lead Gtr.]                                                 | 
                                                            |
    e|-----------------|----------------|----------------|  |
    B|-13-----------13-|15-----------15-|17--------------|  |
    G|-12-----------12-|14-----------14-|16--------------|  |
    D|-10-----------10-|12-----------12-|14--------------|  |
    A|-----------------|----------------|----------------|  |
    E|-----------------|----------------|----------------|  |


[Outro]

[Rhythm Gtr.]
P.M. [-------------------------------------------------------------------------------------]
    e|-----------------|----------------|-------------------------|------------------------|
    B|-----------------|----------------|-------------------------|------------------------|
    G|-----------------|7-7-7-7-7--7--7-|-------------------------|------------------------|
    D|-7-7-7-7-7--7--7-|----------7--7--|5--5--5--5--5----5----5--|7--7--7--7--3--3--5--5--|
    A|-----------7--7--|----------------|---------------5----5----|------------------------|
    E|-----------------|----------------|-------------------------|------------------------|

[Lead Gtr.]

    e|-0h8-7-5-3h5-----|----------------|10-10-8-8-5-5-3-3--------|---------3--------------|
    B|-----------------|----------------|------------------5-5-3-3|-3//5--5----------------|
    G|-----------------|--------0-2-----|-------------------------|------------------------|
    D|-----------------|----------------|-------------------------|------------------------|
    A|-----------------|----------------|-------------------------|------------------------|
    E|-----------------|----------------|-------------------------|------------------------|

 [Rhythm Gtr.]
P.M. [-------------------------------------------------------------------------------------]
    e|-----------------|----------------|-------------------------|------------------------|
    B|-----------------|----------------|-------------------------|------------------------|
    G|-----------------|7-7-7-7-7--7--7-|-------------------------|------------------------|
    D|-7-7-7-7-7--7--7-|----------7--7--|5--5--5--5--5----5----5--|7--7--7--7--3--3--5--5--|
    A|-----------7--7--|----------------|---------------5----5----|------------------------|
    E|-----------------|----------------|-------------------------|------------------------|

[Lead Gtr.]

    e|-----------------|----------------|-------------------------|15p12-15p12-17-20p17-15------------------|
    B|-----------------|----------------|-------------------------|------------------------15-13-13/10-10/8-|
    G|-----------------|----------------|-------------------------|-----------------------------------------|
    D|-----------------|----------------|-------------------------|-----------------------------------------|
    A|-----------------|----------------|-------------------------|-----------------------------------------|
    E|-----------------|----------------|-------------------------|-----------------------------------------|


Fade out with whammy bar dives.


************************************

| x   Dead note
| h   Hammer-on
| p   Pull-off
| /   Slide up
| \   Slide down
| ~   Vibrato
| PM  Palm mute

************************************

            
            
Suggest correction
Creating personal tab
Creating personal tab
You can edit any tab online and save it as your Personal.

You can edit, replace or remove any tab part or add personal notes – all changes will be seen only by you.

Personal tabs can be accessed anytime from any device, even offline.
Learn more »
Give kudos to tab author, rate the tab!
1 2 3 4 5
comments
print report bad tab
1 comment total.
0 reply
beemerwb 10 Aug 12, 2017 06:51 PM

praise kek

guest
You may want to rate the tab now too:
select rating
Wanna post a correction for this tab? Suggest correction