Oops, an error
Loading. Please wait.

Zing Went The Strings Of My Heart Bass

67 views 1 this week
no commentswrite comment
1 2 3 4 5
3 more votes to show rating
add to favorites
launch autoscroll
font size
0
reset
guitar tuner
×
Best way to learn
"Zing Went The Strings Of My Heart"
Autoscroll
slow
fast
+/-
esc
set tempo
stop
Zing Went The Strings Of My Heart
This terrific cover version of a classic by the one and only P.J.Proby. 
Tab by bass50611. Never released as a single but a favourite at his live
 Concerts. And at nearly 80 years of age what an outstanding voice.

Intro:     (Play Quavers)
G|-----------------------------------|
D|-----------------------------------|
A|-----------------------------------|
E|-8-8-8-8-8-8-8-8---8-8-8-8-8-8-8-8-|

Verse 1:
G|-------------------------------------------------|
D|-------------------------------------------------|
A|-8--8--8--8--8--8--8--8---5--5--5--5--5--5--5--5-|
E|-------------------------------------------------|

G|-------------------------------------------------|
D|-------------------------------------------------|
A|-------------------------------------------------|
E|-6--6--6--6--6--6--6--6-7-8--8--8--8--8--8--8--8-|

Chorus:
G|-------------------------------------------------------------|
D|--------------------------8--8--8--8--8--8--8--8-------------|
A|--------------------------------------------------8--8--8--8-|
E|-6--6--6--6--6--6--6--6--------------------------------------|

G|-------------------------------------|
D|-------------------------------------|
A|-5--5--5--5--------------------------|
E|-------------6--6--6--6---8--8--8--8-|

Verse 2:
G|-------------------------------------------------|
D|-------------------------------------------------|
A|-8--8--8--8--8--8--8--8---5--5--5--5--5--5--5--5-|
E|-------------------------------------------------|

G|-------------------------------------------------|
D|-------------------------------------------------|
A|-------------------------------------------------|
E|-6--6--6--6--6--6--6--6-7-8--8--8--8--8--8--8--8-|

Chorus:
G|-------------------------------------------------------------|
D|--------------------------8--8--8--8--8--8--8--8-------------|
A|--------------------------------------------------8--8--8--8-|
E|-6--6--6--6--6--6--6--6--------------------------------------|

G|-------------------------------------|
D|-------------------------------------|
A|-5--5--5--5--------------------------|
E|-------------6--6--6--6---8--8--8--8-|

Interlude 1:
G|-------------------------------------------------|
D|-------------------------------------------------|
A|-8--8--8--8--8--8--8--8---5--5--5--5--5--5--5--5-|
E|-------------------------------------------------|

G|----------------------------------------------------------|
D|----------------------------------------------------------|
A|----------------------------------------------------------|
E|-6--6--6--6--6--6--6--6---8-8-8-8-8-8-8-8---8-8-8-8-8-8-8-|

Chorus:
G|-------------------------------------------------------------|
D|--------------------------8--8--8--8--8--8--8--8-------------|
A|--------------------------------------------------8--8--8--8-|
E|-6--6--6--6--6--6--6--6--------------------------------------|

G|-------------------------------------|
D|-------------------------------------|
A|-5--5--5--5--------------------------|
E|-------------6--6--6--6---8--8--8--8-|

Verse 3:
G|-------------------------------------------------|
D|-------------------------------------------------|
A|-8--8--8--8--8--8--8--8---5--5--5--5--5--5--5--5-|
E|-------------------------------------------------|

G|-------------------------------------------------|
D|-------------------------------------------------|
A|-------------------------------------------------|
E|-6--6--6--6--6--6--6--6-7-8--8--8--8--8--8--8--8-|

Chorus:
G|-------------------------------------------------------------|
D|-------------------------------------------------------------|
A|--------------------------------------------------8--8--8--8-|
E|-6--6--6--6--6--6--6--6---6--6--6--6--6--6--6--6-------------|

G|-----------------------------------------------|
D|-----------------------------------------------|
A|-5--5--5--5------------------------------------|
E|-------------6-6-6-6-6-6-6-6---8-8-8-8-8-8-8-8-|

Interlude 2:
G|-------------------------------------------------|
D|-------------------------------------------------|
A|-8--8--8--8--8--8--8--8---5--5--5--5--5--5--5--5-|
E|-------------------------------------------------|

                                               (Song Fades Out)
G|----------------------------------------------------------|
D|----------------------------------------------------------|
A|----------------------------------------------------------|
E|-6--6--6--6--6--6--6--6---8-8-8-8-8-8-8-8---8-8-8-8-8-8-8-|
Suggest correction
Give kudos to tab author, rate the tab!
1 2 3 4 5
comments
print report bad tab
guest
You may want to rate the tab now too:
select rating
Wanna post a correction for this tab? Suggest correction