Oops, an error
Loading. Please wait.

Abortion Is Murder tab

by P.O.D.
148 views 1 this week
no commentswrite comment
1 2 3 4 5
3 more votes to show rating
add to favorites
×
Save as Personal and add changes to this tab that will be seen only by you. Learn more ›
×
You can save this tab as Personal to edit and correct it or add notes. All changes will be seen only by you. Learn more »
launch autoscroll
font size
0
reset
how to read this tab
guitar tuner
edit
Autoscroll
slow
fast
+/-
esc
set tempo
stop
Song: Abortion is Murder
Artist: P.O.D.(Payable On Death)

Both of these tabs are the 'Snuff the Punk' and 'Live' versions of the song.
I am sure that they are 100% correct, but if not, it'll be easy for you to
change a few things around. Have fun, God bless, and Jah People Ride On!

P.M.=palm mute
~=let it ring
\=slide down

Snuff the Punk version
Tuning: Db Ab Db Gb Bb Eb

Intro-when Sonny has a quick speech(4x):
Eb/------------------------------------------------------|
Bb/------------------------------------------------------|
Gb/------------------------------------------------------|
Db/-00000000-4-00000000-4-00000000-4-00000000-4--0--4--0-|
Ab/-00000000-4-00000000-4-00000000-4-00000000-4--0--4--0-|
Db/-00000000-4-00000000-4-00000000-4-00000000-4--0--4--0-|
P.M.........   ........   ........   ........

Transition to verse(bass only)

Verse-when guitar comes in(2x):
Eb/-------------------------------------------------------------|
Bb/-------------------------------------------------------------|
Gb/-------------------------------------------------------------|
Db/-00000000-6-0-6-00000000-6-0-6-00000000-6-0-6-00000000-6-0-6-|
Ab/-00000000-6-0-6-00000000-6-0-6-00000000-6-0-6-00000000-6-0-6-|
Db/-00000000-6-0-6-00000000-6-0-6-00000000-6-0-6-00000000-6-0-6-|
P.M.........       ........       ........       ........

Bridge(2x):
Eb/--------------------------------------|
Bb/--------------------------------------|
Gb/-----7----------7--------7--------7---|
Db/-7~~---7--6\7~~---7--5~~---7--3~~---7-|
Ab/--------------------------------------|
Db/--------------------------------------|

Verse(2x)

Bridge(2x)

Verse(2x)

Ending:
Eb/-----|
Bb/-----|
Gb/-----|
Db/-0~~-|
Ab/-0~~-|
Db/-0~~-|


Live version
Tuning: D A D G B e

The rhythm and speed in this version is different, but much easier to play.
This version also sounds completely, if you listen to both cd's that is.
Listen to the 'Live' cd to get the timing right.

Intro(bass only)

Verse-when guitar hits(2x):
e/------------------------------------------------------------------------|
B/------------------------------------------------------------------------|
G/------------------------------------------------------------------------|
D/-0000-6-00-6-00-6-00000-6-00-6-00-6-00000-6-00-6-00-6-00000-6-00-6-00-6-|
A/-0000-6-00-6-00-6-00000-6-00-6-00-6-00000-6-00-6-00-6-00000-6-00-6-00-6-|
D/-0000-6-00-6-00-6-00000-6-00-6-00-6-00000-6-00-6-00-6-00000-6-00-6-00-6-|
P.M....   ..   ..   .....   ..   ..   .....   ..   ..   .....   ..   ..

Bridge-slower beat(2x):
e/--------------------------------------|
B/--------------------------------------|
G/-----7----------7--------7--------7---|
D/-7~~---7--6\7~~---7--5~~---7--3~~---7-|
A/--------------------------------------|
D/--------------------------------------|

Verse(2x)

Ending:
e/-----|
B/-----|
G/-----|
D/-0~~-|
A/-0~~-|
D/-0~~-|

            
            
Suggest correction
Creating personal tab
Creating personal tab
You can edit any tab online and save it as your Personal.

You can edit, replace or remove any tab part or add personal notes – all changes will be seen only by you.

Personal tabs can be accessed anytime from any device, even offline.
Learn more »
Give kudos to tab author, rate the tab!
1 2 3 4 5
comments
print report bad tab
guest
You may want to rate the tab now too:
select rating
Wanna post a correction for this tab? Suggest correction