Oops, an error
Loading. Please wait.

Alive Tab

version 4
version 4
by P.O.D.
15,759 views 24 this week
7 commentsread comments
1 2 3 4 5
x 15
add to favorites
launch autoscroll
font size
0
reset
how to read this tab
guitar tuner
backing track
0:00
0:00
×
Best way to learn
"Alive"
Autoscroll
slow
fast
+/-
esc
set tempo
stop
Author
Song: Alive
Band: P.O.D.
Album: Satellite 
Tabbed by:  Alejandro D'Brot 
           alexd@terra.com.pe

p= pull-off 
h= hammer-on 

Tuning: Low C - CGCFAD


[ intro & main riff ] 
     
D|--------------------------------------------------------| 
A|--------------------------------------------------------|
F|--------------2-2-2-2-5-5-5--5-5-5-5-5----5-5-5-5-------| 
C|-2-2-2-0-2----2-2-2-2-5-5-5--5-5-5-5-5----5-5-5-5-5-5-5-|
G|-2-2-2-0-2----0-0-0-0-3-3-3--3-3-3-3-3----3-3-3-3-5-5-5-|
C|-2-2-2-0-2----------------------------------------5-5-5-|
     D   C         G         A#               A#      F        

...play that six times...                 
...then end it by playing this just one time...

D|--------------------------------------------------------|
A|--------------------------------------------------------|
F|--------------2-2-2-2-5-5-5--5-5-5-5-5------------------|
C|-2-2-2-0-2----2-2-2-2-5-5-5--5-5-5-5-5----5-5-0-0-5-5-0-|
G|-2-2-2-0-2----0-0-0-0-3-3-3--3-3-3-3-3----5-5-0-0-5-5-0-|
C|-2-2-2-0-2--------------------------------5-5-0-0-5-5-0-|
     D   C         G               A#        F   C   F  C     


[ chorus ]

..play this two times...

  "...I... feel so alive..."
D|---------------3------------------------------------------------|
A|---------------5------------------------------------------------|
F|-5-5-5-5-5-5-5-5--5-5-5-5-7-7-7---------------------------------|
C|-5-5-5-5-5-5-5----5-5-5-5-7-7-7-2-2-2-2-2-2-2-2-2-2-2-2-2-2-2-2-|
G|-3-3-3-3-3-3-3----3-3-3-3-5-5-5-2-2-2-2-2-2-2-2-2-2-2-2-2-2-2-2-|
C|--------------------------------2-2-2-2-2-2-2-2-2-2-2-2-2-2-2-2-|
      A#(7x)          A#      C                 D(16x)

D|--------------------------------------------------------------|
A|--------------------------------------------------------------|
F|--------------------------------------------------------------|
C|-5-5-5-5-5-5-5-5-5-5-5-5-5----5-5-5-5-5-5-5-5-----------------|
G|-5-5-5-5-5-5-5-5-5-5-5-5-5-0--5-5-5-5-5-5-5-5/10-9-7-9--7-5-0-|
C|-5-5-5-5-5-5-5-5-5-5-5-5-5-0--5-5-5-5-5-5-5-5-----------------|
             F(13x)                  F(8x)

...now play the first part of the main riff three times and the second part once...
...and then play the chorus...

..now for the bridge...


[ bridge ]

D|-------------------14h15p14-(7x)-14h15p14h15-*----| 
A|--------------------------------------------------| 
F|--------------------------------------------------|
C|--------------------------------------------------| 
G|-7----10-9----5-----------------------------------| 
C|--------------------------------------------------| 

  "...and know that I know you..."
D|--------------------------------------------------| 
A|--------------------------------------------------| 
F|--------------------------------------------------|
C|------------------5-------------------------------| 
G|-7----10-9----5-----------------------------------| 
C|--------------------------------------------------| 
               ^ let ring & distort

D|-------------------14h15p14-(7x)-14h15p14h15-*----| 
A|--------------------------------------------------| 
F|--------------------------------------------------|
C|--------------------------------------------------| 
G|-7----10-9----5-----------------------------------| 
C|--------------------------------------------------| 

[* after this the notes sort of blend in with each other, I have     ]
[  no idea what kind of effect Marcos is using                       ]

...then play the chorus four times...
[ the third and fourth time the chorus is played, the first part of           ] 
[ the bridge part is overlapped and the chorus is cut short (listen to the song) ]

...make a short pause and play this four times...

D|------------------------------| 
A|------------------------------| 
F|------------------------------|  
C|-2-2-2-0-2---2-2-0-2-0-2------| 
G|-2-2-2-0-2---2-2-0-2-0-2------| 
C|-2-2-2-0-2---2-2-0-2-0-2------| 

...
Suggest correction
comments
print report bad tab
7 comments total. Showing first comments.
0 reply
blinkfizz 0 Feb 08, 2002 07:00 PM

Nice tab man, you gonner do one for the song "satellite"?
blinkfizz

0 reply
alexbrot 272 Mar 03, 2002 07:00 PM

Nah, I know how to play it but I don't like that song.

0 reply
HaRdKoRe12 30 Mar 15, 2002 07:00 PM

this is a perfect tab!

guest
You may want to rate the tab now too:
select rating
Wanna post a correction for this tab? Suggest correction