Oops, an error
Loading. Please wait.
We have an official Boom tab made by UG professional guitarists. Check out the tab »
×

Boom bass

version 3
version 3

Whole song

  • The old bass tabs of this song were incorrect or j... Show more

Interactive

by P.O.D.
67 views 3 this week
no commentswrite comment
1 2 3 4 5
3 more votes to show rating
add to favorites
×
Save as Personal and add changes to this tab that will be seen only by you. Learn more ›
×
You can save this tab as Personal to edit and correct it or add notes. All changes will be seen only by you. Learn more »
launch autoscroll
font size
0
reset
guitar tuner
backing track
0:00
0:00
edit
Autoscroll
slow
fast
+/-
esc
set tempo
stop
About this tab version
The old bass tabs of this song were incorrect or just missing parts in several places, this is the most correct version available. Was this info helpful? Yes No
P.O.D: Boom             Drop D Tuning

Guitar Intro


[Intro]

G|-----------------------------------------------------------------|
D|-----------------------------------------------------------------| 
A|-----------------------------------------------------------------|
D|-2\------------------------------5\------------------------------|


[Verse]

G|-----------------------------------------------------------------|
D|-----------------------------------------------------------------| 
A|-----------------------------------------------------------------|(x4)
D|-2-2-2-2-2-0-0-0-2-2-2-2-2-0-0-0-5-5-5-5-5-5-5-5-5-5-7-7-7-0-0-0-|


[Pre-Chorus]

G|-----------------------------------------------------------------|
D|-----------------------------------------------------------------| 
A|-----------------------------------------------------------------|
D|-2\------------------------------5\------------------------------|

G|-----------------------------------------------------------------|
D|-----------------------------------------------------------------| 
A|-----------------------------------------------------------------|
D|-2\------------------------------5-5-5-5-5-5-5-5-5-5-7-7-7-0-0-0-|


[Chorus]

G|---------------------------------------------------|
D|---------------------------------------------------| 
A|---------------------------------------------------|(x2)
D|-2--2---5\---2--2---5--7-7-7-7-7-0~--7-7-7-7-7-0~--|


[Verse]


[Pre-Chorus]


[Chorus] (4x)


[Verse]


[Bridge]

G|-----------------------------------------------------------------|
D|-----------------------------------------------------------------| 
A|-----------------------------------------------------------------|(x5)
D|-2-2-2-2-2-0-0-0-2-2-2-2-2-0-0-0-5-5-5-5-5-5-5-5-5-5-7-7-7-0-0-0-|

G|-----------------------------------------------------------------|
D|-----------------------------------------------------------------| 
A|-----------------------------------------------------------------|
D|-2-2-2-2-2-0-0-0-2-2-2-2-2-0-0-0-5~--5~--5~----------------------|

G|-----------------------------------------------------------------|
D|-----------------------------------------------------------------| 
A|-----------------------------------------------------------------|
D|-2~----------------------------2-0~--------------------------/9~-|

G|-----------------------------------------------------------------|
D|-----------------------------------------------------------------| 
A|-----------------------------------------------------------------|(x2)
D|-2~----------------------------2-0~------------------------------|


[Final Chorus]

G|---------------------------------------------------|
D|---------------------------------------------------| 
A|---------------------------------------------------|
D|-2--2--------2--2------7-7-7-7-7-0~--7-7-7-7-7-0~--|

G|---------------------------------------------------|
D|---------------------------------------------------| 
A|---------------------------------------------------|
D|-2--2--------2--2------7-7-7-7-7-0~--7-7-7-7-7-9~--|

G|---------------------------------------------------|
D|---------------------------------------------------| 
A|---------------------------------------------------|
D|-2--2---5\---2--2---0--7-7-7-7-7-0~--7-7-7-7-7-0~--|

G|---------------------------------------------------|
D|---------------------------------------------------| 
A|---------------------------------------------------|
D|-2--2---5\---2--2---0--7-7-7-7-7-0~--7-7-7-7-7-0---|



************************************

| /  Slide up
| \  Slide down
| ~  Vibrato

************************************

            
            
Suggest correction
Creating personal tab
Creating personal tab
You can edit any tab online and save it as your Personal.

You can edit, replace or remove any tab part or add personal notes – all changes will be seen only by you.

Personal tabs can be accessed anytime from any device, even offline.
Learn more »
Give kudos to tab author, rate the tab!
1 2 3 4 5
comments
print report bad tab
guest
You may want to rate the tab now too:
select rating
Wanna post a correction for this tab? Suggest correction