Oops, an error
Loading. Please wait.

Checkin Levels tab

version 1
version 1

Whole song

Interactive

by P.O.D.
320 views 1 this week
3 commentsread comments
1 2 3 4 5
x 7
add to favorites
×
Save as Personal and add changes to this tab that will be seen only by you. Learn more ›
×
You can save this tab as Personal to edit and correct it or add notes. All changes will be seen only by you. Learn more »
launch autoscroll
font size
0
reset
how to read this tab
guitar tuner
edit
Autoscroll
slow
fast
+/-
esc
set tempo
stop
Author
this is my first whole song so if you dont like then cry somewhere else.

e-------------------------------------------------------------------------------
B-------------------------------------------------------------------------------
G-------------------------------------------------------------------------------
D-------------------------------------------10-8-7-----10-8-7--8-7-8--7-5-7-----
A----0-5-3-1------0-5-3-1-5-3-5-3-1-3-----0----------0--------------------------
E--0------------0-----------------------0----------0----------------------------

thats it

            
            
Suggest correction
Creating personal tab
Creating personal tab
You can edit any tab online and save it as your Personal.

You can edit, replace or remove any tab part or add personal notes – all changes will be seen only by you.

Personal tabs can be accessed anytime from any device, even offline.
Learn more »
comments
print report bad tab
3 comments total.
0 reply
sponge-ed 45 Jan 28, 2003 07:00 PM

e---------------------------------------
B---------------------------------------
G---------------------------------------
D---------------------------------------
A----0-5-3-1---0-5-3-1--5-3-5-----------
E--0---------0--------------------------

e---------------------------------------
B---------------------------------------
G---------------------------------------
D------10-8-7-----10-8-7--8-7-8--7-5-7--
A----0----------0-----------------------
E--0----------0-------------------------

0 reply
PodFan#1 80 Jan 20, 2004 07:00 PM

yo if anybody needs any help with the songs on p.o.d. The Fundamental Elements of Southtown cd just email me. If you ask me I garantee it'll be right or the closest to right you ever heard(execept for p.o.d. of course)My email is FlameRdDrgn@aol.com

0 reply
Anarion614 81 Oct 03, 2006 06:23 PM

standard or drop-d tuning?

guest
You may want to rate the tab now too:
select rating
Wanna post a correction for this tab? Suggest correction