Oops, an error
Loading. Please wait.

Criminal Conversations tab

by P.O.D.
647 views 9 this week
no commentswrite comment
1 2 3 4 5
x 5
add to favorites
×
Save as Personal and add changes to this tab that will be seen only by you. Learn more ›
×
You can save this tab as Personal to edit and correct it or add notes. All changes will be seen only by you. Learn more »
launch autoscroll
font size
0
reset
how to read this tab
guitar tuner
edit
Autoscroll
slow
fast
+/-
esc
set tempo
stop
P.O.D.: Criminal Conversations

Transcribed by: mysticguitar77

Facebook: https://www.facebook.com/MysticGuitar77
YouTube Channel: https://www.youtube.com/user/MysticGuitar77

Date last modified: September 3, 2015

Tuning: D Standard (D,G,C,F,A,D)

Riff 1 (clean w/ chorus and delay)
D|------------------------------------------------------------------------12-------|
A|------10----14----10------10----14----10------10----15----10------10----------10-|
F|---11----11----11------11----11----11------11----11----11------11----11----11----|
C|-9-------------------9-------------------0---------------------------------------|
G|-------------------------------------------------------------9-------------------|
D|---------------------------------------------------------------------------------|

Riff 1 (alternate way to play)
D|------------9------------------9------------------10------------------12-------|
A|------10---------10------10---------10------10----------10------10----------10-|
F|---11----11---11------11----11---11------11----11----11------11----11----11----|
C|-9------------------9------------------0---------------------------------------|
G|-----------------------------------------------------------9-------------------|
D|-------------------------------------------------------------------------------|

Play Riff 1 x8   "When you came out to meet me..."

Riff 2   "You've got me on the end of your line..."
D|------------------------------------------------------------|
A|------------------------------------------------------------|
F|-4-4-4-4-4-4-4-4-4-4-4-4-4-4-4-4----------------------------|
C|-4-4-4-4-4-4-4-4-4-4-4-4-4-4-4-4-2-2-2-4-4-4-5--5--5-5--5-5-|
G|-2-2-2-2-2-2-2-2-2-2-2-2-2-2-2-2-2-2-2-4-4-4-5--5--5-5--5-5-|
D|---------------------------------0-0-0-2-2-2-3--3--3-3--3-3-|

         "Criminal conversations, senseless observations..."
D|------------------------------------------------------|
A|-10b12-10-------------------10b12-10------------------|
F|-----------7~---7--7/9--6~------------7~---7--7/9--6~-|
C|------------------------------------------------------| use delay for this part throughout the song
G|------------------------------------------------------|
D|------------------------------------------------------|

Play Riff 1 x6   "So delicate and lovely..."
Play Riff 2 x1   "You've got me on the end of your line..."
                  (ending bit gets repeated an additional time)

Riff 3 (light distortion w/ delay)
D|------------------------------------------9-----------9-b10-|
A|--------10b12r10b12r10b12r10b12r10b12r10-----10-------------|
F|----11-------------------------------------------11---------|
C|-9----------------------------------------------------------|
G|------------------------------------------------------------|
D|------------------------------------------------------------|

Play Riff 3 x4   "All of my life..."

Final chorus   "Criminal conversations..."
D|---------------------------|
A|-10b12-10------------------|
F|-----------7~---7--7/9--6~-|
C|---------------------------| x4
G|---------------------------|
D|---------------------------|

Ending   "You've got me holding onto your line..."
D|------------------------------------------------------------|
A|------------------------------------------------------------|
F|-4-4-4-4-4-4-4-4-4-4-4-4-4-4-4-4----------------------------|
C|-4-4-4-4-4-4-4-4-4-4-4-4-4-4-4-4-2-2-2-4-4-4-5--5--5-5--5-5-| x4
G|-2-2-2-2-2-2-2-2-2-2-2-2-2-2-2-2-2-2-2-4-4-4-5--5--5-5--5-5-|
D|---------------------------------0-0-0-2-2-2-3--3--3-3--3-3-|
                                               ^ ends here to end the song and let ring

Enjoy!!
Suggest correction
Creating personal tab
Creating personal tab
You can edit any tab online and save it as your Personal.

You can edit, replace or remove any tab part or add personal notes – all changes will be seen only by you.

Personal tabs can be accessed anytime from any device, even offline.
Learn more »
comments
print report bad tab
guest
You may want to rate the tab now too:
select rating
Wanna post a correction for this tab? Suggest correction