Oops, an error
Loading. Please wait.

Find My Way Bass

version 1
version 1

Whole song

Interactive

by P.O.D.
832 views 1 this week
1 commentread comment
1 2 3 4 5
2 more votes to show rating
add to favorites
×
Save as Personal and add changes to this tab that will be seen only by you. Learn more ›
×
You can save this tab as Personal to edit and correct it or add notes. All changes will be seen only by you. Learn more »
save as personal
new!
launch autoscroll
font size
0
reset
guitar tuner
Autoscroll
slow
fast
+/-
esc
set tempo
stop
Band- POD
Song- Find My Way

Chorus
G -----------------------------|
D -----------------------------| 2x
A -55555--5555-------------11--|
D -------8-----88-55555-33-----|

Verse    2x                        2x
G ---------------------------|-------------------------|
D ---------------------------|-------------------------|
A ----11r---33r--------------|-----11r---33r-----7545--|
D -00r----------55r----------|-00r-----------55r-------|

Chorus 2x

After Chorus
G -----------------------|
D -----------------------|
A --------------------11-| 2x
D -0000-/4000-0000-33----|

verse
Chorus 2x
After Chorus 2x

Breakdown I
G --------------------------------|
D --------------------------------|
A --------------------------------| 2x
D -7777-3-0--30308888-33-555-888--|

Breakdown II
G ---------------------------------|
D ---------------------------------|
A --------------111-----------000--| 2x
D -888555-3-3-3-----03030-303------|

Rest for a couple of seconds

Chorus 2x
After Chorus 2x
Breakdown I 1x
Suggest correction
Give kudos to tab author, rate the tab!
1 2 3 4 5
comments
print report bad tab
1 comment total.
0 reply
ugarmymember 10 Mar 20, 2005 07:00 PM

Dude, your version of the verse is all wrong. This is how it's really played:

G|--------------| G|----3--5--0--|
D|-0--8--10--5--| D|-0-----------|
A|--------------| or A|-------------|
E|--------------| E|-------------|

guest
You may want to rate the tab now too:
select rating
Wanna post a correction for this tab? Suggest correction