Oops, an error
Loading. Please wait.

Lights Out tab

version 2
version 2

Whole song

Interactive

by P.O.D.
1,016 views 1 this week
2 commentsread comments
1 2 3 4 5
2 more votes to show rating
add to favorites
×
Save as Personal and add changes to this tab that will be seen only by you. Learn more ›
×
You can save this tab as Personal to edit and correct it or add notes. All changes will be seen only by you. Learn more »
launch autoscroll
font size
0
reset
how to read this tab
guitar tuner
edit
Autoscroll
slow
fast
+/-
esc
set tempo
stop
-------------------------------------------------------------------------------
                             Lights Out - P.O.D
-------------------------------------------------------------------------------
Tabbed by:Ryan Mason
Email:XxBabyWareWolfxX@aol.com

Tuning:CGCFAD

Intro/Chorus
D|-------------------------------------------------|
A|-------------------------------------------------|
F|-----------------2-------------------------------|
C|---4-2-4----2-44422-x4-------xx--9997------------|
G|---4-2-4----2-44402----------xx--9997------------|
C|---4-2-4----2-444-2----------xx--9997------------|
 play only the first 3 notes the when u play the fourth time

Verse
D|---------------------------------------------------------------------------|
A|---------------------------------------------------------------------------|
F|---------2-2---4-4---5-5---4-4---------------2-2---1-1---0-0---------------|
C|--4-4-4-4---4-4---4-4---4-4------x3---4-4-4-4---4-4---4-4----4-4-----------|
G|---------------------------------------------------------------------------|
C|---------------------------------------------------------------------------|

Pre-Chorus
D|---------------------------------------------------------------------------|
A|---------------------------------------------------------------------------|
F|---------------------------------------------------------------------------|
C|--xx-9997999--9-9-9-9-9-9/7-7-7-10-10-10-10-9-9-9-9--x2-single notes ------|
G|--xx-9997999---------------------------------------------------------------|
C|--xx-9997999---------------------------------------------------------------|

Pre-Chorus Cont.
D|------------------|
A|------------------|
F|------------------|
C|--xx-9997---------|
G|--xx-9997---------|
C|--xx-9997---------|
  
 play everything over again. in the chrorus listen for the muted notes

Bridge
D|-------------------------------------------------|
A|--5/7--7/5-x2-----5-7-x10--/--17-19-x6-----------|
F|-------------------------------------------------|
C|-------------------------------------------------|
G|-------------------------------------------------|
C|-------------------------------------------------|
 remeber to tremelo pick the note on the 19th fret

Bridge Cont.
D|------------------------------|
A|------------------------------|
F|------------------------------|
G|------------------------------|
C|--------2-------2-2---x4------|
C|--4-2-0---4-2-0--0------------|

 repeat only the first four notes when u play the fourth time
 
 play intro/chorus 3 more times



that's it. hope this isnt to confusing cuz this is my first full tab and i'm only 14 so plz rate.


| /  slide up
| \  slide down
| h  hammer-on
| p  pull-off
| ~  vibrato
| +  harmonic
| x  Mute note
===============================================================================


            
            
Suggest correction
Creating personal tab
Creating personal tab
You can edit any tab online and save it as your Personal.

You can edit, replace or remove any tab part or add personal notes – all changes will be seen only by you.

Personal tabs can be accessed anytime from any device, even offline.
Learn more »
Give kudos to tab author, rate the tab!
1 2 3 4 5
comments
print report bad tab
2 comments total.
0 reply
365_days_gone 4,287 Jan 07, 2007 10:31 AM

This song entirely uses a 7-string.

0 reply
FBA Ac1d 83 Feb 02, 2007 06:09 AM

The verse is wrong man...in the nicest way possible that sounds nothing like it...and the solo seems weird too.

guest
You may want to rate the tab now too:
select rating
Wanna post a correction for this tab? Suggest correction