Oops, an error
Loading. Please wait.

Set It Off bass

version 2
version 2

Whole song

Interactive

by P.O.D.
542 views 3 this week
1 commentread comment
1 2 3 4 5
2 more votes to show rating
add to favorites
×
Save as Personal and add changes to this tab that will be seen only by you. Learn more ›
×
You can save this tab as Personal to edit and correct it or add notes. All changes will be seen only by you. Learn more »
launch autoscroll
font size
0
reset
guitar tuner
edit
Autoscroll
slow
fast
+/-
esc
set tempo
stop
Author
Tabbed by: R8:31b

To pick up the rhythm its best to listen to the song, its too difficult to tab it out 
get the rhythm to be accurate.

~ hold note
\ slide down
/ slide up

Intro 4x
G|----------------------------|
D|-------------1111-3-0000-1--|
A|3333--3333------------------|
E|----------------------------|
B|----1-----1-----------------|


Verse
        Part1            Part2            Part3
G|----------------|----------------|------------------|
D|----------------|----------------|------------------|
A|----------------|---------444-4--|---------444------|
E|--------444-4---|-1-1-1--------4-|-1-1-1-------4----|
B|1-1-1---------4-|----------------|--------------4---|\
play part one 8 times
play part two 3 times
play part three once
play part one again 4 times

Pre Chorus 2x
G|------------------------|
D|------------------------|
A|------------------------|
E|------------------------|
B|1----2----4----6----8-8-|

Chorus
G|------------------|----------------|
D|------------------|----------------|
A|------------------|----------------|
E|------------------|----------3-----|
B|1---3-4-1---------|1---3-4-1-------|
play first part 6 times, play last part before going back into the verse

Bridge - repeat the intro four times,
then play this for 2nd half
("we made it this far, don't you quit on me")
G|------------------------------|
D|------------------------------|
A|------------------------------|
E|------------------------------|
B|1--2--4--6--8-8~---44444\1111-|
play four times

Play chrous again with this at the very end of the song:
G|-----
D|-----
A|-----
E|-----
B|-1---

            
            
Suggest correction
Creating personal tab
Creating personal tab
You can edit any tab online and save it as your Personal.

You can edit, replace or remove any tab part or add personal notes – all changes will be seen only by you.

Personal tabs can be accessed anytime from any device, even offline.
Learn more »
Give kudos to tab author, rate the tab!
1 2 3 4 5
comments
print report bad tab
1 comment total.
0 reply
tgifriday 10 May 26, 2009 09:36 PM

meh :[

guest
You may want to rate the tab now too:
select rating
Wanna post a correction for this tab? Suggest correction